Sound will begin in 5 seconds

Flashback Intro Gtr 1

Chords
01234567891011121314151617181920212223
E
B
G
D
A
E
B
0 1 2 3 4 5 6 7 8 9 10 11 12 13 14 15 16 17 18 19 20 21 22 23
Song Science #1: How Pros Use 6 Chords to Write Hit Songs
(/) Slide Up  (\) Slide Down  (h) Hammer On  (p) Pull Off  (b) Bend (r) Release (v) Vibrato

Stave 1:

E|-----14--------------------------------------------------------------------9--9--9--12--12--12--
B|---------14----------------------------------------------------10--10--10-------------------_--
G|-----10------14---------------------11--11--11--14--14--14-----------------6--6--6--9---9---9---
D|---------10------16-----12--12--12-----------------------------7---7---7--------------------_--
A|-------------12---------------------9---9---9---12--12--12----------------------------------_--
E|-----------------14-----10--10--10----------------------------------------------------------_--

Stave 2:

E|--12--12--12--16--16--16--19--19--19--
B|--------------------------------------
G|--9---9---9---13--13--13--16--16--16--
D|--------------------------------------
A|--------------------------------------
E|--------------------------------------

http://www.guitartabcreator.com
Guitar Tab Creator is intended to store guitar tab created through the tool. It currently does not support in-line text editing. Any text you place in here will be lost. If you need to comment on your tab, please use the "Tab Notes" section located below.