Fly me to the moon fingerstyle

01234567891011121314151617181920212223
E
B
G
D
A
E
B
0 1 2 3 4 5 6 7 8 9 10 11 12 13 14 15 16 17 18 19 20 21 22 23
(/) Slide Up  (\) Slide Down  (h) Hammer On  (p) Pull Off  (b) Bend (r) Release (v) Vibrato

Opening

E|--3-----2--0-----------------3--2--------0--------
B|--0-----------3--1--------3-----1-----------3--1--
G|--0--0-----------------0--------2-----2-----------
D|--------------------------------0--0--------------
A|--------------------0-----------------------------
E|--0-----------------------------------------------

Bridge

E|-----------------0--
B|--0--------------0--
G|--0--------0-----0--
D|--0-----0-----0-----
A|-----------------3--
E|--3--3--------------

2nd part

E|--------------------0--------------------
B|--3--1--0-----0--1-----4-----------------
G|-----------2-----------------5--4--2--0--
D|--------------------------4--------------
A|-----------------------2-----------------
E|-----------------------------------------

1st chorus

E|--------------------0--0--------------2h3--2--------
B|-----------------------------1----------------3--3--
G|--------0-----0--0--------0--------2----------------
D|-----2--------------------------0-------------------
A|-----------------0----------------------------3-----
E|--0-------------------------------------------------

2nd chorus

E|-----------------------------------0--------------------------------
B|-----------------------1--1-----------3--1-----0-----------------4--
G|--------1-----0--0-----------0--2--------------------0--------4-----
D|-----2-----------------------2--0-----------------0--------4--------
A|-----------------0--------------------------------------2-----------
E|--0-----------------------------------------3-----------------------

1st chorus (alt)

E|--------------------0--0--------------2h3--2--7--
B|-----------------------------1-------------------
G|--------0-----0--0--------0--------2-------------
D|-----2--------------------------0----------------
A|-----------------0-------------------------------
E|--0-------------------------------------------3--

1st part of ending

E|--------------------7--7--3--3--------------2h3/5--3--
B|-----0-----------------------------5------------------
G|--0-----0--------1--------------5--------2------------
D|--------------0-----------------------0---------------
A|------------------------------------------------------
E|-----------0---------------------------------------3--

second part of ending

E|-----------3--
B|-----0--------
G|--0-----0-----
D|--------------
A|-----------2--
E|-----------3--

							http://www.guitartabcreator.com
Chords

Tab Notes
after 2nd chorus, play from the beginning until the first chorus
genre
Instruments
{"strings":[[[3,".",2,0,".",".",".",".",".",3,2,".",".",0,".","."],[0,".",".",".",3,1,".",".",3,".",1,".",".",".",3,1],[0,0,".",".",".",".",".",0,".",".",2,".",2,".",".","."],[".",".",".",".",".",".",".",".",".",".",0,0,".",".",".","."],[".",".",".",".",".",".",0,".",".",".",".",".",".",".",".","."],[0,".",".",".",".",".",".",".",".",".",".",".",".",".",".","."]],[[".",".",".",".",".",0],[0,".",".",".",".",0],[0,".",".",0,".",0],[0,".",0,".",0,"."],[".",".",".",".",".",3],[3,3,".",".",".","."]],[[".",".",".",".",".",".",0,".",".",".",".",".","."],[3,1,0,".",0,1,".",4,".",".",".",".","."],[".",".",".",2,".",".",".",".",".",5,4,2,0],[".",".",".",".",".",".",".",".",4,".",".",".","."],[".",".",".",".",".",".",".",2,".",".",".",".","."],[".",".",".",".",".",".",".",".",".",".",".",".","."]],[[".",".",".","_",".",".",0,0,".",".",".",".",2,"h",3,2,".","."],[".",".",".","_",".",".",".",".",".",1,".",".",".",".",".",".",3,3],[".",".",0,"_",0,0,".",".",0,".",".",2,".",".",".",".",".","."],[".",2,".","_",".",".",".",".",".",".",0,".",".",".",".",".",".","."],[".",".",".","_",".",0,".",".",".",".",".",".",".",".",".",".",3,"."],[0,".",".","_",".",".",".",".",".",".",".",".",".",".",".",".",".","."]],[[".",".",".",".",".",".",".",".","_","_","_",0,".",".",".",".",".",".",".",".",".","."],[".",".",".",".",".",".",".",1,1,"_","_","_",3,1,".",0,".",".",".",".",".",4],[".",".",1,".",0,0,".",".","_",0,2,"_",".",".",".",".",".",0,".",".",4,"."],[".",2,".",".",".",".",".",".","_",2,0,"_",".",".",".",".",0,".",".",4,".","."],[".",".",".",".",".",0,".",".","_","_","_","_",".",".",".",".",".",".",2,".",".","."],[0,".",".",".",".",".",".",".","_","_","_","_",".",".",3,".",".",".",".",".",".","."]],[[".",".",".",".",".",".",0,0,".",".",".",".",2,"h",3,2,7],[".",".",".",".",".",".",".",".",".",1,".",".",".",".",".",".","."],[".",".",0,".",0,0,".",".",0,".",".",2,".",".",".",".","."],[".",2,".",".",".",".",".",".",".",".",0,".",".",".",".",".","."],[".",".",".",".",".",0,".",".",".",".",".",".",".",".",".",".","."],[0,".",".",".",".",".",".",".",".",".",".",".",".",".",".",".",3]],[[".",".",".",".",".",".",7,7,3,3,".",".",".",".",2,"h",3,"/",5,3],[".",0,".",".",".",".",".",".",".",".",".",5,".",".",".",".",".",".",".","."],[0,".",0,".",".",1,".",".",".",".",5,".",".",2,".",".",".",".",".","."],[".",".",".",".",0,".",".",".",".",".",".",".",0,".",".",".",".",".",".","."],[".",".",".",".",".",".",".",".",".",".",".",".",".",".",".",".",".",".",".","."],[".",".",".",0,".",".",".",".",".",".",".",".",".",".",".",".",".",".",".",3]],[[".",".",".",3],[".",0,".","."],[0,".",0,"."],[".",".",".","."],[".",".",".",2],[".",".",".",3]]],"numberofstrings":6,"notes":["E","B","G","D","A","E","B"],"capo":0,"stringnotes":["E4","B3","G3","D3","A2","E2"],"comments":["Opening","Bridge","2nd part","1st chorus","2nd chorus","1st chorus (alt)","1st part of ending","second part of ending"],"timing":[["W","W","W","W","W","W","W","W","W","W","W","W","W","W","W","W","W","W","W","W","W"],["W","W","W","W","W","W"],["W","W","W","W","W","W","W","W","W","W","W","W","W"],["W","W","W","W","W","W","W","W","W","W","W","W","W",null,"W","W","W","W"],["W","W","W","W",null,"W","W","W","W","W","W","W","W","W","W","W","W","W","W","W","W","W","W"],[null,"W","W","W",null,"W","W","W","W","W","W","W","W",null,"W","W","W","W","W","W",null,null,"W","W","W","W","W"],["W","W","W","W","W","W","W","W","W","W","W","W","W","W","W","W","W",null,"W","W","W","W","W"],["W","W","W","W"]],"timingvisible":false,"tabcounter":4,"stave":7,"totalstaves":8,"instrument":"6guitar","selectedtuning":"6_standard","version":"13"}

Member for

4 months 2 weeks
About Me
I play guitar
Submitted by BillDam on Mon, 2020-11-30 06:09