Sound will begin in 5 seconds

Well You Needn't

01234567891011121314151617181920212223
E
B
G
D
A
E
B
0 1 2 3 4 5 6 7 8 9 10 11 12 13 14 15 16 17 18 19 20 21 22 23
Song Science #1: How Pros Use 6 Chords to Write Hit Songs
(/) Slide Up  (\) Slide Down  (h) Hammer On  (p) Pull Off  (b) Bend (r) Release (v) Vibrato

Stave 1:

E|-----------------------------|--------
B|-----------------------4-----|--------
G|-----------2--5--2--------3--|--3-----
D|--------3-----------3--------|-----4--
A|--2--3-----------------------|--------
E|-----------------------------|--------

Stave 2:

E|--------------------------
B|--------------------------
G|--------------------------
D|--------3-----------3-----
A|--2--3-----3--2--3-----3--
E|--------------------------

Stave 3:

E|-----------|--------------
B|-----------|--------------
G|-----------|--------------
D|--------5--|--------6-----
A|--4--5-----|--5--6-----6--
E|-----------|--------------

Stave 4:

E|-----------------------------------------------------
B|-----------------------------------------------------
G|-----------------------------------------------------
D|--------7-----------8-----------9-----------8--------
A|--6--7-----7--7--8-----8--8--9-----9--7--8-----8--6--
E|-----------------------------------------------------

Stave 5:

E|--------------------------------------
B|--------------------------------------
G|--------------------------------------
D|-----7-----------6-----------5--------
A|--7-----7--5--6-----6--3--4-----4--3--
E|--------------------------------------

http://www.guitartabcreator.com
Guitar Tab Creator is intended to store guitar tab created through the tool. It currently does not support in-line text editing. Any text you place in here will be lost. If you need to comment on your tab, please use the "Tab Notes" section located below.