Sound will begin in 5 seconds

Bach Cello Suite 1

01234567891011121314151617181920212223
E
B
G
D
A
E
B
0 1 2 3 4 5 6 7 8 9 10 11 12 13 14 15 16 17 18 19 20 21 22 23
Song Science #1: How Pros Use 6 Chords to Write Hit Songs
(/) Slide Up  (\) Slide Down  (h) Hammer On  (p) Pull Off  (b) Bend (r) Release (v) Vibrato

Stave 1:

G|------11-9-11---11--------11-9-11---11---|------12-11-12---12--------12-11-12---12---|-
D|----7---------7----7----7---------7----7-|----9----------9----9----9----------9----9-|-
A|-----------------------------------------|-------------------------------------------|-
E|-10------------------10------------------|-10-------------------10-------------------|-

Stave 2:

G|-------12-11-12----12----------12-11-12----12----|-------11-9-11----11----------11-9-11----11----|-
D|----11----------11----11----11----------11----11-|----12---------12----12----12---------12----12-|-
A|-------------------------------------------------|-----------------------------------------------|-
E|-10----------------------10----------------------|-10---------------------10---------------------|-

Stave 3:

G|------11-9-11-7----7---7----7----------|-------9----9----9----------9----9----9----|-
D|----9-----------11---9---11-----7------|----12---12---12---12----12---12---12---12-|-
A|------------------------------9---11-9-|-11-------------------11-------------------|-
E|-10------------------------------------|-------------------------------------------|-

Stave 4:

G|-------14----14---------------------------------|-----------------------------------------|-
D|----14----18----14----14----14----14----11-9----|-----12-11-12---12-------12-11-12---12---|-
A|-16----------------17----16----17----12------12-|---9----------9----9---9----------9----9-|-
E|------------------------------------------------|-7-------------------7-------------------|-

Stave 5:

G|---------------------------14-13-11-------|--------14----14--------------9-7--------
D|------7-9-7--------12-11-9----------14-12-|-11-9-7----14----11-14-7-9-11-----11-9-7-
A|---11-------11-9-7------------------------|-----------------------------------------
E|-7----------------------------------------|-----------------------------------------

Stave 6:

G|-8-------------8---11-------------11---|------9-11-12-9-----------9-11-12-9------
D|---7-10-9-10-7---7----7-10-9-10-7----7-|----9-----------9-------9-----------11-9-
A|---------------------------------------|-10---------------12-10------------------
E|---------------------------------------|-----------------------------------------

Stave 7:

G|-----------9----9--------------9----9----|------------------9--------------------------
D|-8-11-8-11---11---11-8-11-8-11---11---11-|-12-11-9-12-11-12---11-12-11-9---------------
A|-----------------------------------------|-------------------------------12-10-9-------
E|-----------------------------------------|---------------------------------------12-10-

Stave 8:

G|-----------------------------------------|-----------------------------------------|-
D|------7----7----7---------7----7----7----|------10-9-10---10--------10-9-10---10---|-
A|---10---10---10---10---10---10---10---10-|----9---------9----9----9---------9----9-|-
E|-9-------------------9-------------------|-10------------------10------------------|-

Stave 9:

G|-----------------------------------------|-------12-11-12----12----------12-11-12----12----|-
D|-------9-7-9----9----------9-7-9----9----|----11----------11----11----11----------11----11-|-
A|----10-------10---10----10-------10---10-|-------------------------------------------------|-
E|-10------------------10------------------|-10----------------------10----------------------|-

http://www.guitartabcreator.com
Guitar Tab Creator is intended to store guitar tab created through the tool. It currently does not support in-line text editing. Any text you place in here will be lost. If you need to comment on your tab, please use the "Tab Notes" section located below.