autumn leaves

Chords

01234567891011121314151617181920212223
E
B
G
D
A
E
B
0 1 2 3 4 5 6 7 8 9 10 11 12 13 14 15 16 17 18 19 20 21 22 23
(/) Slide Up  (\) Slide Down  (h) Hammer On  (p) Pull Off  (b) Bend (r) Release (v) Vibrato

Stave 1:

E|-------------11-------------------10--------------------8-----------------6--3--3--
B|--8--10--11---------8-----------------6-----8-----6--8-----4--4-----5--7-----------
G|--------------------7--10--10---------7-----7--8-----------5--5--7-----------3--3--
D|--------------------8-----------------7-----8--------------5--4--------------3--4--
A|--------------------8-----------------------6-----------------5--------------3--4--
E|--------------------------------------6--------------------5-----------------------

Stave 2:

E|-------------11--8----------------10--------------------8--------5--8--6-----3--2--3--
B|--8--10--11---------8------8--10------6--6--8-----6--8-----4--4-----------8-----------
G|-----------------8--7--10-------------7--7--7--8-----------5--5--------------3--2--3--
D|-----------------8--8-----------------7--7--8--------------5--4--------------3--2--3--
A|-----------------8--8-----------------------6-----------------5--------------3--2--3--
E|--------------------------------------6--------------------5--------------------------

Stave 3:

E|------------------------------------------------
B|--8--7--8--10-----10--9--10--10--8--10--11--11--
G|---------------7------7--8----------------------
D|----------------------9--10---------------------
A|----------------------8--9----------------------
E|------------------------------------------------

							http://www.guitartabcreator.com
Instruments
{"strings":[[[".",".",".",11,".",".",".",".","_",10,".","_",".",".",".",".",8,".",".",".",".",".",6,3,3],[8,10,11,".",".",8,".",".","_",".",6,"_",8,".",6,8,".",4,4,".",5,7,".",".","."],[".",".",".",".",".",7,10,10,"_",".",7,"_",7,8,".",".",".",5,5,7,".",".",".",3,3],[".",".",".",".",".",8,".",".","_",".",7,"_",8,".",".",".",".",5,4,".",".",".",".",3,4],[".",".",".",".",".",8,".",".","_",".",".","_",6,".",".",".",".",".",5,".",".",".",".",3,4],[".",".",".",".",".",".",".",".","_",".",6,"_",".",".",".",".",".",5,".",".",".",".",".",".","."]],[[".",".",".",11,8,".",".",".",".",10,".",".",".",".",".",".",8,".",".",5,8,6,".",3,2,3],[8,10,11,".",".",8,".",8,10,".",6,6,8,".",6,8,".",4,4,".",".",".",8,".",".","."],[".",".",".",".",8,7,10,".",".",".",7,7,7,8,".",".",".",5,5,".",".",".",".",3,2,3],[".",".",".",".",8,8,".",".",".",".",7,7,8,".",".",".",".",5,4,".",".",".",".",3,2,3],[".",".",".",".",8,8,".",".",".",".",".",".",6,".",".",".",".",".",5,".",".",".",".",3,2,3],[".",".",".",".",".",".",".",".",".",".",6,".",".",".",".",".",".",5,".",".",".",".",".",".",".","."]],[[".",".",".",".",".",".","_",null,null,".",".",".",".",".","."],[8,7,8,10,".",10,9,null,null,10,10,8,10,11,11],[".",".",".",".",7,".",7,null,null,8,".",".",".",".","."],[".",".",".",".",".",".",9,null,null,10,".",".",".",".","."],[".",".",".",".",".",".",8,null,null,9,".",".",".",".","."],[".",".",".",".",".",".","_",null,null,".",".",".",".",".","."]]],"numberofstrings":6,"notes":["E","B","G","D","A","E","B"],"capo":0,"stringnotes":["E4","B3","G3","D3","A2","E2"],"comments":["Stave 1:","Stave 2:","Stave 3:"],"timing":[[null,null,null,null,null,null,null,"W",null,null,null,null,null,"W","W","W","W","W","W","W","W","W","W","W","W"],["W","W","W","W","W","W","W","W","W","W","W","W","W","W","W","W","W","W","W","W","W","W","W","W","W","W"],["W","W","W","W","W","W","W","W",null,"W","W","W","W","W","W"]],"timingvisible":false,"tabcounter":15,"stave":2,"totalstaves":3,"instrument":"6guitar","selectedtuning":"6_standard","version":"13"}

Member for

1 week 2 days
Submitted by bilele123123 on Mon, 2020-06-29 02:11