Sound will begin in 5 seconds

Tears from my eyes

01234567891011121314151617181920212223
E
B
G
D
A
E
B
0 1 2 3 4 5 6 7 8 9 10 11 12 13 14 15 16 17 18 19 20 21 22 23
Song Science #1: How Pros Use 6 Chords to Write Hit Songs
(/) Slide Up  (\) Slide Down  (h) Hammer On  (p) Pull Off  (b) Bend (r) Release (v) Vibrato

Stave 1:

E|-------------------------10---------------------------------------------------------------------------------------
B|---------------10------------13b15-----10--11--10--11--11/13-----10--11--9h10-------------------------------------
G|--------12b14------------------------------------------------------------------12b14--10--12------12------10------
D|----------------------------------------------------------------------------------------------12------12------12--
A|------------------------------------------------------------------------------------------------------------------
E|------------------------------------------------------------------------------------------------------------------

Stave 2:

E|-------------10-------------10----------------------------------------------------------------10--12--13--
B|---------10------10--13b15------13b15---------------------------------------------10--11--13--------------
G|--12b14--------------------------------12b14--10--12------10--------------10--12--------------------------
D|------------------------------------------------------12------12--12--12----------------------------------
A|----------------------------------------------------------------------------------------------------------
E|----------------------------------------------------------------------------------------------------------

Stave 3:

E|--10p12--10-----------------------------------------------------------------------------------
B|-------------10p13--10------------------------------------------------------------------------
G|------------------------10--12------10-----------------10--10--9-----9--10--10p9--------------
D|--------------------------------12------12--12-----12-----------------------------12--10------
A|------------------------------------------------------------------------------------------12--
E|----------------------------------------------------------------------------------------------

Stave 4:

E|------------------------------------------------------------------------------------
B|------------------------------------------------------------------------------------
G|-------10--12--12b14r12--10--12---------10--12b14-----12b14r12--10------10----------
D|--/12-------------------------------12------------------------------12------12------
A|--------------------------------------------------------------------------------12--
E|------------------------------------------------------------------------------------

http://www.guitartabcreator.com
Guitar Tab Creator is intended to store guitar tab created through the tool. It currently does not support in-line text editing. Any text you place in here will be lost. If you need to comment on your tab, please use the "Tab Notes" section located below.