Sound will begin in 5 seconds

Välkomen till jorden

Chords
01234567891011121314151617181920212223
E
B
G
D
A
E
B
0 1 2 3 4 5 6 7 8 9 10 11 12 13 14 15 16 17 18 19 20 21 22 23
(/) Slide Up  (\) Slide Down  (h) Hammer On  (p) Pull Off  (b) Bend (r) Release (v) Vibrato

Stave 1:

E|-----------4-------------------------------------------------------------------------
B|-----------------5--------------3----------2-----------2--2h3-----0-------------7h9--
G|--------4-----4-----4--------2--------1h2-----------2----------2-------------9-------
D|-----6--------------------4--------2-------------2------------------------9----------
A|--7--------------------5----------------------0----------------------5h7-------------
E|-------------------------------------------------------------------------------------

Stave 2:

E|-----------------------------------2-----------------------------
B|-----------2-----------2--------3--------3--------------9--------
G|--------2-----------2--------2--------2-----2--------9--------9--
D|-----2-----------2--------0-----------------------9--------9-----
A|--0-----------0--------------------------------7-----------------
E|-----------------------------------------------------------------

Stave 3:

E|--------------0--------------0-----------2----------------------------------
B|-----------2--------------2-----------3--------3--------------7h9-----------
G|--------2--------------2-----------2--------2-----2--------9-------9--------
D|-----2--------------2-----------0-----------------------9-------------9-----
A|--0--------------0-----------------------------------7-------------------7--
E|----------------------------------------------------------------------------

Stave 4:

E|--------------2----------------------------------------------------------2--------
B|-----------3-----------------------7h9--------------------2-----------2-----------
G|--------2--------2-----2--------9-------9--------------4-----------------------2--
D|-----4--------------4--------9-------------9--------2--------------4--------4-----
A|--2-----------------------7-------------------2--4--------------4-----------------
E|-------------------------------------------------------------2--------------------

Stave 5:

E|--------------2---------------------------------------------------
B|-----------3--------------9-----------2--2h3-----0-----------7h9--
G|--------2--------------9-----------2----------2-----------9-------
D|-----4--------------9-----------2----------------------9----------
A|--2--------------7-----------0----------------------7-------------
E|------------------------------------------------------------------

Stave 6:

E|--5-----------5---------------------------------------------
B|--5-----------7-----------9-----------------3---------------
G|--6-----------7--------9-----------------2---------------6--
D|--7-----------7--------9--------------4-------------6h7-----
A|--7-----------5--------7-----------5-----------5\7----------
E|--5---------------------------------------------------------

http://www.guitartabcreator.com
Guitar Tab Creator is intended to store guitar tab created through the tool. It currently does not support in-line text editing. Any text you place in here will be lost. If you need to comment on your tab, please use the "Tab Notes" section located below.