Sound will begin in 5 seconds

These Burmese

Chords
01234567891011121314151617181920212223
E
B
G
D
A
E
B
0 1 2 3 4 5 6 7 8 9 10 11 12 13 14 15 16 17 18 19 20 21 22 23
Song Science #1: How Pros Use 6 Chords to Write Hit Songs
(/) Slide Up  (\) Slide Down  (h) Hammer On  (p) Pull Off  (b) Bend (r) Release (v) Vibrato

Stave 1:

E|--------------------------------------------------------------------------------------
B|-----------8--------------------8--------------------8--------------------8-----------
G|--------7-----7--------------7-----7--------------7-----7--------------7-----7--------
D|-----8-----------8--------8-----------8--------8-----------8--------8-----------8-----
A|--6-----------------6--7-----------------7--6-----------------6--7-----------------7--
E|--------------------------------------------------------------------------------------

Stave 2:

E|-----------------------------------------------------------------------------
B|-----------6--------------------6-----------6--6--6--6--x--x--x--x--6--6--6--
G|--------5-----5--------------5-----5--------5--5--5--5--x--x--x--x--5--5--5--
D|-----4-----------4--------4-----------4-----4--4--4--4--x--x--x--x--4--4--4--
A|--5-----------------5--5-----------------5--5--5--5--5--x--x--x--x--5--5--5--
E|-----------------------------------------------------------------------------

Stave 3:

E|--11--11--11--11--11--11--8---8---6--6--6--6--9---
B|--11--11--11--11--11--11--8---8---6--6--6--6--9---
G|--11--11--11--11--11--11--9---9---6--6--6--6--10--
D|--------------11--11--11--10--10--6--6--6--6--11--
A|--------------13--13--13--10--10--8--8--8--8--11--
E|--------------11--11--11--8---8---6--6--6--6--9---

Stave 4:

E|--
B|--
G|--
D|--
A|--
E|--

http://www.guitartabcreator.com
Guitar Tab Creator is intended to store guitar tab created through the tool. It currently does not support in-line text editing. Any text you place in here will be lost. If you need to comment on your tab, please use the "Tab Notes" section located below.