Sound will begin in 5 seconds

The Eagles - Hotel California Intro Acoustic

Chords
01234567891011121314151617181920212223
E
B
G
D
A
E
B
0 1 2 3 4 5 6 7 8 9 10 11 12 13 14 15 16 17 18 19 20 21 22 23
(/) Slide Up  (\) Slide Down  (h) Hammer On  (p) Pull Off  (b) Bend (r) Release (v) Vibrato

Stave 1:

E|--2----------------------------------------------
B|--3---------------------------7--7h8p7-----------
G|--4--4--4h6p4--3--4--6--7--9------------9--9/11--
D|--4----------------------------------------------
A|--2----------------------------------------------
E|--2----------------------------------------------

Stave 2:

E|--2----------------------------------------------
B|--2--------------3--2----------------------------
G|--3--2--4--2--4-----------2--2h4p2---------------
D|--4--------------------4------------4p2----------
A|--4--------------------------------------5--5/7--
E|--2----------------------------------------------

Stave 3:

E|--------------0-----------0-----------0--------------0--7--10--7--10--7--10--
B|-----------0-----------0-----------0--------------0-----8--8---8--8---8--8---
G|--------0-----------2-----------4--------------7--------9--9---9--9---9--9---
D|--2--2-----------4-----------5-----------9--9--------------------------------
A|--2--------------------------------------------------------------------------
E|-----------------------------------------------------------------------------

Stave 4:

E|--6--7--
B|--------
G|--------
D|--------
A|--------
E|--------

Stave 5:

E|--7--6--7--9--10--9--10--10--
B|-----------------------------
G|-----------------------------
D|-----------------------------
A|-----------------------------
E|-----------------------------

Stave 6:

E|--7--6--7--9--10--9--10--12--12/14--
B|------------------------------------
G|------------------------------------
D|------------------------------------
A|------------------------------------
E|------------------------------------

http://www.guitartabcreator.com
Guitar Tab Creator is intended to store guitar tab created through the tool. It currently does not support in-line text editing. Any text you place in here will be lost. If you need to comment on your tab, please use the "Tab Notes" section located below.