Sound will begin in 5 seconds

Take the A train - 1:FMaj7|G7b5 - 2:Gm7 - 3:C9 - 4:FMaj7 - 5:BbMaj7

01234567891011121314151617181920212223
E
B
G
D
A
E
B
0 1 2 3 4 5 6 7 8 9 10 11 12 13 14 15 16 17 18 19 20 21 22 23
Song Science #1: How Pros Use 6 Chords to Write Hit Songs
(/) Slide Up  (\) Slide Down  (h) Hammer On  (p) Pull Off  (b) Bend (r) Release (v) Vibrato

(W|WW) Whole (H|HH) Half (Q|QQ) Quarter (E|EE) 8th (S|SS) 16th (T|TT) 32nd (X|XX) 64th

Stave 1:
t: Q QQ Q QQ QQ QQ QQ Q QQ Q QQ Q QQ Q QQ Q Q
E|--8--10--8------|-----------------|----------------|-------------------
B|------------11--|--10--11--10--8--|------8--10--8--|------8--10--8-----
G|----------------|-----------------|--10------------|--10------------9--
D|----------------|-----------------|----------------|-------------------
A|----------------|-----------------|----------------|-------------------
E|----------------|-----------------|----------------|-------------------

Stave 2:
t: QQ QQ Q QQ QQ QQ Q QQ QQ
E|--12--10p9------|--------------------
B|------------12--|--10----------------
G|----------------|------10p9----------
D|----------------|------------12--11--
A|----------------|--------------------
E|----------------|--------------------

Stave 3:
t: QQ QQ QQ QQ QQ QQ QQ QQ QQ QQ QQ QQ QQ QQ QQ QQ QQ
E|------------------|------------------|------10--13--12--|------10----------|------
B|------------------|------10--13------|--11--------------|--13------11--10--|------
G|------------------|--10----------12--|------------------|------------------|--12--
D|--------------12--|------------------|------------------|------------------|------
A|--10--12--13------|------------------|------------------|------------------|------
E|------------------|------------------|------------------|------------------|------

Stave 4:
t: QQ QQ QQ Q QQ QQ QQ QQ
E|----------------|------------------
B|--10--11--13--9/|--10--------------
G|----------------|------10------13--
D|----------------|----------12------
A|----------------|------------------
E|----------------|------------------

Stave 5:
t:
E|--------------------------|-----------6-------------|--------------------|--------------------
B|-----------------------6--|-----6--8-----9--7p6-----|--6--6--8--6--------|--------------------
G|-----------5-----5--7-----|--8-------------------8--|--------------------|--------------------
D|-----5--7-----8-----------|-------------------------|-----------------5--|--7--7--8--7--5-----
A|--8-----------------------|-------------------------|--------------8-----|-----------------8--
E|--------------------------|-------------------------|--------------------|--------------------

Stave 6:
t:
E|-----------4--5--6--7--8--6--8--4/5-----------
B|-----6--8----------------------------6-----6--
G|--7-------------------------------------7-----
D|----------------------------------------------
A|----------------------------------------------
E|----------------------------------------------

http://www.guitartabcreator.com
Guitar Tab Creator is intended to store guitar tab created through the tool. It currently does not support in-line text editing. Any text you place in here will be lost. If you need to comment on your tab, please use the "Tab Notes" section located below.