Sound will begin in 5 seconds

SummerTime2

Chords
01234567891011121314151617181920212223
E
B
G
D
A
E
B
0 1 2 3 4 5 6 7 8 9 10 11 12 13 14 15 16 17 18 19 20 21 22 23
Song Science #1: How Pros Use 6 Chords to Write Hit Songs
(/) Slide Up  (\) Slide Down  (h) Hammer On  (p) Pull Off  (b) Bend (r) Release (v) Vibrato

Stave 1:

E|---5-------5---|---5-------|---------------5---------------|---5-------|---5-----------------------
B|-------6-------|---6---5---|---8---6---8-------6-----------|---6---5---|-------6---8---3---3---3---
G|---------------|---5---4---|-----------------------7-------|---5---4---|---------------3---3---3---
D|---------------|---7---3---|---------------------------7---|---7---3---|---------------3---4---3---
A|---------------|---5-------|-------------------------------|---5-------|---------------5-------5---
E|---------------|-------3---|-------------------------------|-------3---|---------------3-------3---

Stave 2:

E|-----------------------|-----------5-------|---
B|---6-------6-------6---|---8---6-------6---|---
G|-------7-------7-------|---7---6-------6---|---
D|-----------------------|---6---5-------5---|---
A|-----------------------|---7---------------|---
E|-----------------------|---0---5-------5---|---

Stave 3:

E|---5-------5---|---5-------|---------------5---------------|---5-------|---
B|-------6-------|---6---5---|---8---6---8-------6-----------|---6---5---|---
G|---------------|---5---4---|-----------------------7-------|---5---4---|---
D|---------------|---7---3---|---------------------------7---|---7---3---|---
A|---------------|---5-------|-------------------------------|---5-------|---
E|---------------|-------3---|-------------------------------|-------3---|---

Stave 4:

E|-------------------|---------------|-------------------|---
B|-------------------|---6---6---7---|---8---6---5---5---|---
G|-------5-------5---|---7-------6---|-----------5---4---|---
D|---7---7---7-------|---6-------5---|-----------3---3---|---
A|-------8-----------|---8-----------|-----------5-------|---
E|-------------------|---6-------5---|---------------3---|---

http://www.guitartabcreator.com
Guitar Tab Creator is intended to store guitar tab created through the tool. It currently does not support in-line text editing. Any text you place in here will be lost. If you need to comment on your tab, please use the "Tab Notes" section located below.