Sound will begin in 5 seconds

Smile

01234567891011121314151617181920212223
E
B
G
D
A
E
B
0 1 2 3 4 5 6 7 8 9 10 11 12 13 14 15 16 17 18 19 20 21 22 23
Song Science #1: How Pros Use 6 Chords to Write Hit Songs
(/) Slide Up  (\) Slide Down  (h) Hammer On  (p) Pull Off  (b) Bend (r) Release (v) Vibrato

Stave 1:

E|-----|-----2--------------|-----------------------|-----------|-----------|--
B|--3--|--5-----5--3--2-----|--2--3--5--3--2--------|--0--2--3--|--0--2--3--|--
G|--2--|-----------------4--|--2--------------4--2--|--4--------|--1--------|--
D|--4--|--------------------|--4--------------------|--4--------|--3--------|--
A|--5--|--------------------|--5--------------------|--5--------|--2--------|--
E|-----|--------------------|-----------------------|-----------|-----------|--

Stave 2:

E|-----------|-----------|---------7---------------|--------------------------|--
B|--5--7--8--|--4--5--7--|--8--10-----10--8--7-----|--8--10--11--10--8--7--5--|--
G|--7--------|--5--------|--7---------7---7-----9--|--7-----------------------|--
D|--5--------|--7--------|--9---------9---9--------|--8-----------------------|--
A|--7--------|--6--------|--7---------7---7--------|--7-----------------------|--
E|-----------|-----------|-------------------------|--------------------------|--

Stave 3:

E|-----------|--------------|-----------|--------------|-----|--
B|--7--8--7--|--8--7--------|--5--7--5--|--7--5--3--2--|--3--|--
G|--6--------|--8-----9-----|--7--------|--6-----------|--2--|--
D|--7--------|--7--------7--|--5--------|--5-----------|--4--|--
A|--5--------|--------------|--7--------|--------------|--5--|--
E|-----------|--------------|-----------|--5-----------|-----|--

http://www.guitartabcreator.com
Guitar Tab Creator is intended to store guitar tab created through the tool. It currently does not support in-line text editing. Any text you place in here will be lost. If you need to comment on your tab, please use the "Tab Notes" section located below.