Sound will begin in 5 seconds

The Nearness of You

Chords
01234567891011121314151617181920212223
E
B
G
D
A
E
B
0 1 2 3 4 5 6 7 8 9 10 11 12 13 14 15 16 17 18 19 20 21 22 23
Song Science #1: How Pros Use 6 Chords to Write Hit Songs
(/) Slide Up  (\) Slide Down  (h) Hammer On  (p) Pull Off  (b) Bend (r) Release (v) Vibrato

Stave 1:

E|-----------|-----7---------|--7------|--7-----|-----4--------|-----|-----------|--4--|-----|--
B|-----5--7--|--9-----10--9--|--7--10--|--9--7--|--5-----7--5--|--4--|--7--5-----|--4--|--3--|--
G|--4--------|--8------------|--7------|--7-----|--6-----------|--6--|--6-----6--|--4--|--4--|--
D|-----------|--9------------|--7------|--9-----|--6-----------|--6--|--5--------|--4--|--3--|--
A|-----------|--7------------|--9------|--7-----|--------------|-----|--6--------|--6--|--4--|--
E|-----------|---------------|--7------|--------|--5-----------|--6--|-----------|--4--|-----|--

Stave 2:

E|--2--------|-----------|--4--|-----|--2--|-----|--|-----------|--|--
B|--2--4--5--|--7--7-----|--4--|--5--|--2--|--5--|--|--7--5--5--|--|--
G|--2--------|--9-----9--|--4--|--4--|--2--|--6--|--|--------4--|--|--
D|--2--------|--7--------|--4--|--3--|--2--|--7--|--|--------6--|--|--
A|--4--------|--9--------|-----|--4--|-----|-----|--|--------7--|--|--
E|--2--------|--7--------|--4--|-----|--2--|--7--|--|-----------|--|--

Stave 3:

E|-----------------|--------------|-----------|-----------|-----------|--------9--9--9--|--
B|--5--------4--5--|--7--7-----7--|--8--9--7--|--------9--|--9--------|-----5-----------|--
G|--4--4--6--------|--9-----9-----|--------9--|--9--8--8--|-----8--5--|--6--6-----------|--
D|--6--------------|--7-----------|--------7--|--------9--|--------6--|-----6-----------|--
A|--7--------------|--9-----------|--------9--|--------7--|-----------|-----------------|--
E|-----------------|--7-----------|--------7--|-----------|--------6--|-----5-----------|--

Stave 4:

E|--4--------7--4--|--2--|-----|--|--
B|--4-----4--------|--2--|--5--|--|--
G|--4--4-----------|--2--|--6--|--|--
D|--4--------------|--2--|--7--|--|--
A|----------------|-----|-----|--|--
E|--4--------------|--2--|--7--|--|--

http://www.guitartabcreator.com
Guitar Tab Creator is intended to store guitar tab created through the tool. It currently does not support in-line text editing. Any text you place in here will be lost. If you need to comment on your tab, please use the "Tab Notes" section located below.