Sound will begin in 5 seconds

CMaj7 Motifs

01234567891011121314151617181920212223
E
B
G
D
A
E
B
0 1 2 3 4 5 6 7 8 9 10 11 12 13 14 15 16 17 18 19 20 21 22 23
Song Science #1: How Pros Use 6 Chords to Write Hit Songs
(/) Slide Up  (\) Slide Down  (h) Hammer On  (p) Pull Off  (b) Bend (r) Release (v) Vibrato

Stave 1:

E|---------------|--7--10--8--7--|--8--7--8--7--|---------------|--
B|------------8--|---------------|--------------|--8------------|--
G|---------9-----|---------------|--------------|-----9---------|--
D|--9--10--------|---------------|--------------|--------9--10--|--
A|---------------|---------------|--------------|---------------|--
E|---------------|---------------|--------------|---------------|--

Stave 2:

E|--4/5-----5--|---------|----------------|--------------|----------|--
B|-------8-----|---------|-----------3/5--|--6--5--------|----------|--
G|-------------|--8p7p5--|--5-----5-------|--------7--5--|----------|--
D|-------------|---------|-----7----------|--------------|--6h7--5--|--
A|-------------|---------|----------------|--------------|----------|--
E|-------------|---------|----------------|--------------|----------|--

Stave 3:

E|--------------|-----------------|-----------------|--
B|--------------|-----------------|-----------------|--
G|--------------|--------5--7/10--|--11--10--7------|--
D|--------------|--5--7-----------|-------------10--|--
A|-------3h5/7--|-----------------|-----------------|--
E|--3h5---------|-----------------|-----------------|--

Stave 4:

E|--12--10---------|--10-------------|---------------|------------|----------------|--
B|----------11h12--|------11h12--10--|---------------|------------|----------------|--
G|-----------------|-----------------|--12--9--------|------------|----------------|--
D|-----------------|-----------------|---------10p9--|------------|----------------|--
A|-----------------|-----------------|---------------|--12--9h10--|----------------|--
E|-----------------|-----------------|---------------|------------|--12--10--8--7--|--

Stave 5:

E|-----------------------------|---------------|--
B|--8--------------------------|-----8--10-----|--
G|-----10--7--8--9-------------|--9---------7--|--
D|-----------------------------|---------------|--
A|------------------10--7------|---------------|--
E|-------------------------10--|---------------|--

http://www.guitartabcreator.com
Guitar Tab Creator is intended to store guitar tab created through the tool. It currently does not support in-line text editing. Any text you place in here will be lost. If you need to comment on your tab, please use the "Tab Notes" section located below.