Sound will begin in 5 seconds

Black & Gold Motifs - A Pentatonic

01234567891011121314151617181920212223
E
B
G
D
A
E
B
0 1 2 3 4 5 6 7 8 9 10 11 12 13 14 15 16 17 18 19 20 21 22 23
Song Science #1: How Pros Use 6 Chords to Write Hit Songs
(/) Slide Up  (\) Slide Down  (h) Hammer On  (p) Pull Off  (b) Bend (r) Release (v) Vibrato

Stave 1:

E|--8--8--8--7--7--7---------------7--8--10/12--10--8------7--
B|--------------------8--8--8--10----------------------10-----
G|------------------------------------------------------------
D|------------------------------------------------------------
A|------------------------------------------------------------
E|------------------------------------------------------------

Stave 2:

E|--10/12--12\10--8--7----------------
B|----------------------12\10--8--10--
G|------------------------------------
D|------------------------------------
A|------------------------------------
E|------------------------------------

Stave 3:

E|---------------------------8--5-------------------------------------
B|--4/5----------------8--5--------8--5-------------------------------
G|-------8p7--5-----7--------------------8p7--5-----7-----------------
D|---------------7-------------------------------7-----5--------------
A|--------------------------------------------------------6--5--------
E|--------------------------------------------------------------7--5--

Stave 4:

E|------------------------------------------|-----------------------------------
B|----------------------------------7b7--5--|-----------------------------------
G|-------------------7--5-----5--7----------|-----------------------------------
D|----------5--7--5--------7----------------|-----------------------------------
A|-----7h6----------------------------------|-----------------------------------
E|--8---------------------------------------|-----------------------------------

Stave 5:

E|-------8-------8-------8-------8--|--
B|--4/5-----4/5-----4/5-----4/5-----|--
G|----------------------------------|--
D|----------------------------------|--
A|----------------------------------|--
E|----------------------------------|--

http://www.guitartabcreator.com
Guitar Tab Creator is intended to store guitar tab created through the tool. It currently does not support in-line text editing. Any text you place in here will be lost. If you need to comment on your tab, please use the "Tab Notes" section located below.