Determination ^1

Chords

01234567891011121314151617181920212223
E
B
G
D
A
E
B
0 1 2 3 4 5 6 7 8 9 10 11 12 13 14 15 16 17 18 19 20 21 22 23
(/) Slide Up  (\) Slide Down  (h) Hammer On  (p) Pull Off  (b) Bend (r) Release (v) Vibrato

Stave 1:

E|-----------------------------------|------------------------|------------------------------------|--10--------------------
B|---------------------10------------|--------------10--------|------10--12--10--12--13-----12-----|------13--12--10--------
G|--9--10--12--10--12---------10-----|--12--10--12------------|--12--------------------------------|------------------------
D|-----------------------------------|------------------------|------------------------------------|------------------------
A|-----------------------------------|------------------------|------------------------------------|------------------------
E|-----------------------------------|------------------------|------------------------------------|------------------------

Stave 2:

E|-----------------------------------|------------------------|------------------------------------|--10--------------------
B|---------------------10------------|--------------10--------|------10--12--10--12--13-----12-----|------13--12--10--------
G|--9--10--12--10--12---------10-----|--12--10--12------------|--12--------------------------------|------------------------
D|-----------------------------------|------------------------|------------------------------------|------------------------
A|-----------------------------------|------------------------|------------------------------------|------------------------
E|-----------------------------------|------------------------|------------------------------------|------------------------

Stave 3:

E|--------------------------|---------------------------|----------------------------|------------------------
B|--------------------------|--------------------10-----|--10------10--11-----10-----|--13--11--10------------
G|--10--9--10--12-----9-----|--10--9--10--12------------|------12--------------------|--------------12--------
D|--------------------------|---------------------------|----------------------------|------------------------
A|--------------------------|---------------------------|----------------------------|------------------------
E|--------------------------|---------------------------|----------------------------|------------------------

Stave 4:

E|------------------------------------|----------------------------|----------------------------|--11--------------------
B|----------------------11------------|--------------11-----13-----|--13--11--13--14-----13-----|------14--13--11--------
G|--10--12--12--13--13---------12-----|--13--12--13----------------|----------------------------|------------------------
D|------------------------------------|----------------------------|----------------------------|------------------------
A|------------------------------------|----------------------------|----------------------------|------------------------
E|------------------------------------|----------------------------|----------------------------|------------------------

							http://www.guitartabcreator.com
Instruments
{"strings":[[[".",".",".",".",".",".","_",".","_","|",".",".",".",".","_","_","|",".",".",".",".",".",".","_",".","_","|",10,".",".",".","_","_"],[".",".",".",".",".",10,"_",".","_","|",".",".",".",10,"_","_","|",".",10,12,10,12,13,"_",12,"_","|",".",13,12,10,"_","_"],[9,10,12,10,12,".","_",10,"_","|",12,10,12,".","_","_","|",12,".",".",".",".",".","_",".","_","|",".",".",".",".","_","_"],[".",".",".",".",".",".","_",".","_","|",".",".",".",".","_","_","|",".",".",".",".",".",".","_",".","_","|",".",".",".",".","_","_"],[".",".",".",".",".",".","_",".","_","|",".",".",".",".","_","_","|",".",".",".",".",".",".","_",".","_","|",".",".",".",".","_","_"],[".",".",".",".",".",".","_",".","_","|",".",".",".",".","_","_","|",".",".",".",".",".",".","_",".","_","|",".",".",".",".","_","_"]],[[".",".",".",".",".",".","_",".","_","|",".",".",".",".","_","_","|",".",".",".",".",".",".","_",".","_","|",10,".",".",".","_","_"],[".",".",".",".",".",10,"_",".","_","|",".",".",".",10,"_","_","|",".",10,12,10,12,13,"_",12,"_","|",".",13,12,10,"_","_"],[9,10,12,10,12,".","_",10,"_","|",12,10,12,".","_","_","|",12,".",".",".",".",".","_",".","_","|",".",".",".",".","_","_"],[".",".",".",".",".",".","_",".","_","|",".",".",".",".","_","_","|",".",".",".",".",".",".","_",".","_","|",".",".",".",".","_","_"],[".",".",".",".",".",".","_",".","_","|",".",".",".",".","_","_","|",".",".",".",".",".",".","_",".","_","|",".",".",".",".","_","_"],[".",".",".",".",".",".","_",".","_","|",".",".",".",".","_","_","|",".",".",".",".",".",".","_",".","_","|",".",".",".",".","_","_"]],[[".",".",".",".","_",".","_","|",".",".",".",".","_",".","_","|",".",".",".",".","_",".","_","|",".",".",".",".","_","_"],[".",".",".",".","_",".","_","|",".",".",".",".","_",10,"_","|",10,".",10,11,"_",10,"_","|",13,11,10,".","_","_"],[10,9,10,12,"_",9,"_","|",10,9,10,12,"_",".","_","|",".",12,".",".","_",".","_","|",".",".",".",12,"_","_"],[".",".",".",".","_",".","_","|",".",".",".",".","_",".","_","|",".",".",".",".","_",".","_","|",".",".",".",".","_","_"],[".",".",".",".","_",".","_","|",".",".",".",".","_",".","_","|",".",".",".",".","_",".","_","|",".",".",".",".","_","_"],[".",".",".",".","_",".","_","|",".",".",".",".","_",".","_","|",".",".",".",".","_",".","_","|",".",".",".",".","_","_"]],[[".",".",".",".",".",".","_",".","_","|",".",".",".",".","_",".","_","|",".",".",".",".","_",".","_","|",11,".",".",".","_","_"],[".",".",".",".",".",11,"_",".","_","|",".",".",".",11,"_",13,"_","|",13,11,13,14,"_",13,"_","|",".",14,13,11,"_","_"],[10,12,12,13,13,".","_",12,"_","|",13,12,13,".","_",".","_","|",".",".",".",".","_",".","_","|",".",".",".",".","_","_"],[".",".",".",".",".",".","_",".","_","|",".",".",".",".","_",".","_","|",".",".",".",".","_",".","_","|",".",".",".",".","_","_"],[".",".",".",".",".",".","_",".","_","|",".",".",".",".","_",".","_","|",".",".",".",".","_",".","_","|",".",".",".",".","_","_"],[".",".",".",".",".",".","_",".","_","|",".",".",".",".","_",".","_","|",".",".",".",".","_",".","_","|",".",".",".",".","_","_"]]],"numberofstrings":6,"notes":["E","B","G","D","A","E","B"],"capo":0,"stringnotes":["E4","B3","G3","D3","A2","E2"],"comments":["Stave 1:","Stave 2:","Stave 3:","Stave 4:"],"timing":[["W","W","W","W","W","W","W","W",null,"W","W","W","W","W",null,null,null,"W","W","W","W","W","W","W","W",null,null,"W","W","W","W"],["W","W","W","W","W","W",null,"W",null,null,"W","W","W","W",null,null,null,"W","W","W","W","W","W",null,"W",null,null,"W","W","W","W"],["W","W","W","W",null,"W",null,null,"W","W","W","W",null,"W",null,null,"W","W","W","W",null,"W",null,null,"W","W","W","W"],["W","W","W","W","W","W",null,"W",null,null,"W","W","W","W",null,"W",null,null,"W","W","W","W",null,"W",null,null,"W","W","W","W"]],"timingvisible":false,"tabcounter":32,"stave":3,"totalstaves":4,"instrument":"6guitar","selectedtuning":"6_standard","version":"13"}

Member for

1 month 1 week
Submitted by Big Jeebs on Mon, 2020-10-26 08:50