Determination

Chords

01234567891011121314151617181920212223
E
B
G
D
A
E
B
0 1 2 3 4 5 6 7 8 9 10 11 12 13 14 15 16 17 18 19 20 21 22 23
(/) Slide Up  (\) Slide Down  (h) Hammer On  (p) Pull Off  (b) Bend (r) Release (v) Vibrato

Stave 1:

E|----------------------------|----------------------|----------------------------|---------------------
B|----------------------------|----------------------|----------------------------|---------------------
G|----------------------------|----------------------|----------------------------|--7------------------
D|-------------------7--------|-------------7--------|------7--9--7--9--10-----9--|-----10--9--7--------
A|--7--8--10--8--10--------8--|--10--8--10-----------|--10------------------------|---------------------
E|----------------------------|----------------------|----------------------------|---------------------

Stave 2:

E|----------------------------|----------------------|----------------------------|---------------------
B|----------------------------|----------------------|----------------------------|---------------------
G|----------------------------|----------------------|----------------------------|--7------------------
D|-------------------7--------|-------------7--------|------7--9--7--9--10-----9--|-----10--9--7--------
A|--7--8--10--8--10--------8--|--10--8--10-----------|--10------------------------|---------------------
E|----------------------------|----------------------|----------------------------|---------------------

Stave 3:

E|---------------------|---------------------|---------------------|----------------------
B|---------------------|---------------------|---------------------|----------------------
G|---------------------|---------------------|---------------------|----------------------
D|---------------------|------------------7--|--7------7--8-----7--|--10--8--7------------
A|--8--7--8--10-----7--|--8--7--8--10--------|-----10--------------|------------10--------
E|---------------------|---------------------|---------------------|----------------------

Stave 4:

E|--------------------------|--------------------|--------------------|-----------------
B|--------------------------|--------------------|--------------------|--4--------------
G|-----------------3--------|-----------3-----5--|--5--3--5--6-----5--|-----6--5--3-----
D|--3--5--6--5--6--------5--|--6--5--6-----------|--------------------|-----------------
A|--------------------------|--------------------|--------------------|-----------------
E|--------------------------|--------------------|--------------------|-----------------

							http://www.guitartabcreator.com
Instruments
{"strings":[[[".",".",".",".",".",".","_",".","|",".",".",".",".","_","_","|",".",".",".",".",".",".","_",".","|",".",".",".",".","_","_"],[".",".",".",".",".",".","_",".","|",".",".",".",".","_","_","|",".",".",".",".",".",".","_",".","|",".",".",".",".","_","_"],[".",".",".",".",".",".","_",".","|",".",".",".",".","_","_","|",".",".",".",".",".",".","_",".","|",7,".",".",".","_","_"],[".",".",".",".",".",7,"_",".","|",".",".",".",7,"_","_","|",".",7,9,7,9,10,"_",9,"|",".",10,9,7,"_","_"],[7,8,10,8,10,".","_",8,"|",10,8,10,".","_","_","|",10,".",".",".",".",".","_",".","|",".",".",".",".","_","_"],[".",".",".",".",".",".","_",".","|",".",".",".",".","_","_","|",".",".",".",".",".",".","_",".","|",".",".",".",".","_","_"]],[[".",".",".",".",".",".","_",".","|",".",".",".",".","_","_","|",".",".",".",".",".",".","_",".","|",".",".",".",".","_","_"],[".",".",".",".",".",".","_",".","|",".",".",".",".","_","_","|",".",".",".",".",".",".","_",".","|",".",".",".",".","_","_"],[".",".",".",".",".",".","_",".","|",".",".",".",".","_","_","|",".",".",".",".",".",".","_",".","|",7,".",".",".","_","_"],[".",".",".",".",".",7,"_",".","|",".",".",".",7,"_","_","|",".",7,9,7,9,10,"_",9,"|",".",10,9,7,"_","_"],[7,8,10,8,10,".","_",8,"|",10,8,10,".","_","_","|",10,".",".",".",".",".","_",".","|",".",".",".",".","_","_"],[".",".",".",".",".",".","_",".","|",".",".",".",".","_","_","|",".",".",".",".",".",".","_",".","|",".",".",".",".","_","_"]],[[".",".",".",".","_",".","|",".",".",".",".","_",".","|",".",".",".",".","_",".","|",".",".",".",".","_","_"],[".",".",".",".","_",".","|",".",".",".",".","_",".","|",".",".",".",".","_",".","|",".",".",".",".","_","_"],[".",".",".",".","_",".","|",".",".",".",".","_",".","|",".",".",".",".","_",".","|",".",".",".",".","_","_"],[".",".",".",".","_",".","|",".",".",".",".","_",7,"|",7,".",7,8,"_",7,"|",10,8,7,".","_","_"],[8,7,8,10,"_",7,"|",8,7,8,10,"_",".","|",".",10,".",".","_",".","|",".",".",".",10,"_","_"],[".",".",".",".","_",".","|",".",".",".",".","_",".","|",".",".",".",".","_",".","|",".",".",".",".","_","_"]],[[".",".",".",".",".",".","_",".","|",".",".",".",".","_",".","|",".",".",".",".","_",".","|",".",".",".",".","_"],[".",".",".",".",".",".","_",".","|",".",".",".",".","_",".","|",".",".",".",".","_",".","|",4,".",".",".","_"],[".",".",".",".",".",3,"_",".","|",".",".",".",3,"_",5,"|",5,3,5,6,"_",5,"|",".",6,5,3,"_"],[3,5,6,5,6,".","_",5,"|",6,5,6,".","_",".","|",".",".",".",".","_",".","|",".",".",".",".","_"],[".",".",".",".",".",".","_",".","|",".",".",".",".","_",".","|",".",".",".",".","_",".","|",".",".",".",".","_"],[".",".",".",".",".",".","_",".","|",".",".",".",".","_",".","|",".",".",".",".","_",".","|",".",".",".",".","_"]]],"numberofstrings":6,"notes":["E","B","G","D","A","E","B"],"capo":0,"stringnotes":["E4","B3","G3","D3","A2","E2"],"comments":["Stave 1:","Stave 2:","Stave 3:","Stave 4:"],"timing":[["W","W","W","W","W","W","W","W","W","W","W","W","W",null,null,null,"W","W","W","W","W","W",null,"W",null,"W","W","W","W",null,null,"W","W","W","W"],["W","W","W","W","W","W",null,"W",null,"W","W","W","W",null,null,null,"W","W","W","W","W","W",null,"W",null,"W","W","W","W",null,"W","W"],["W","W","W","W",null,"W",null,"W","W","W","W",null,"W",null,"W","W","W","W",null,"W",null,"W","W","W","W",null,"W"],["W","W","W","W","W","W",null,"W",null,"W","W","W","W",null,"W",null,"W","W","W","W",null,"W",null,"W","W","W","W"]],"timingvisible":false,"tabcounter":28,"stave":3,"totalstaves":4,"instrument":"6guitar","selectedtuning":"6_standard","version":"13"}

Member for

1 month 1 week
Submitted by Big Jeebs on Sat, 2020-10-24 12:53