Sound will begin in 5 seconds

Movable "C" Shape of the Major scale (key of Db)

01234567891011121314151617181920212223
E
B
G
D
A
E
B
0 1 2 3 4 5 6 7 8 9 10 11 12 13 14 15 16 17 18 19 20 21 22 23
Song Science #1: How Pros Use 6 Chords to Write Hit Songs
(/) Slide Up  (\) Slide Down  (h) Hammer On  (p) Pull Off  (b) Bend (r) Release (v) Vibrato

Stave 1:

E|-----------------------------------
B|-----------------------------------
G|-----------------------------------
D|-----------------------------------
A|--4--3--1-----------------1--3--4--
E|-----------4--2--1--2--4-----------

Stave 2:

E|--------------------------
B|--------------------1--2--
G|--------------1--3--------
D|-----1--3--4--------------
A|--4-----------------------
E|--------------------------

Stave 3:

E|--------1--2--4--2--1--------
B|--2--4-----------------4--2--
G|-----------------------------
D|-----------------------------
A|-----------------------------
E|-----------------------------

Stave 4:

E|--------------------------
B|--2--1--------------------
G|--------3--1--------------
D|--------------4--3--1-----
A|-----------------------4--
E|--------------------------

Stave 5:

E|--------------1--------------
B|-----------2-----2-----------
G|--------1-----------1--------
D|-----3-----------------3-----
A|--4-----------------------4--
E|-----------------------------

http://www.guitartabcreator.com
Guitar Tab Creator is intended to store guitar tab created through the tool. It currently does not support in-line text editing. Any text you place in here will be lost. If you need to comment on your tab, please use the "Tab Notes" section located below.