Sound will begin in 5 seconds

Undertale - Spider dance

01234567891011121314151617181920212223
E
B
G
D
A
E
B
0 1 2 3 4 5 6 7 8 9 10 11 12 13 14 15 16 17 18 19 20 21 22 23
Song Science #1: How Pros Use 6 Chords to Write Hit Songs
(/) Slide Up  (\) Slide Down  (h) Hammer On  (p) Pull Off  (b) Bend (r) Release (v) Vibrato

Stave 1:

E|--------------------------------------------------------------------------------------------------------------9--8--9--------------------------------------------
B|--6-----------------------------------------------------------6--4-----------------------------6-----5-----------------9------------------9------8--9------8--9--
G|-----5--------5--3--5-----------5--3-----3--5-----------------------5--3--------------3--5--3-----5-----6--5--------------10----------10-----10--------10--------
D|--------6--3-----------6-----3--------6-----------3--6--3-----------------6--3--5--6------------------------------------------10--10-----------------------------
A|--------------------------6--------------------6-----------6-----------------------------------------------------------------------------------------------------
E|-----------------------------------------------------------------------------------------------------------------------------------------------------------------

Stave 2:

E|--
B|--
G|--
D|--
A|--
E|--

Stave 3:

E|---------9--8--9----------------------------------------------------9--8--9--8-----------------------------------------------9--8--9--8--13--------------------------------------
B|------8-----------9------------------9--11--8--9--11--8--9--11--13--------------9--------------9------8--9------8--9------8------------------11--9--11--9--11--9--11--12--11--9--
G|--10-----------------10----------10------------------------------------------------10------10-----10--------10--------10---------------------------------------------------------
D|-------------------------10--10--------------------------------------------------------10----------------------------------------------------------------------------------------
A|---------------------------------------------------------------------------------------------------------------------------------------------------------------------------------
E|---------------------------------------------------------------------------------------------------------------------------------------------------------------------------------

Stave 4:

E|-----------------------------------------------------------------------------------------------------------------------------------------
B|-------------11--9--11--9--11--9--11--9h11-----------------9------9------11--9--11--9--11--9--11--9--9--11--12--11--9------9------9------
G|------9--10---------------------------------10--10--9--10-----10-----10------------------------------------------------10-----10-----10--
D|--11-------------------------------------------------------------------------------------------------------------------------------------
A|-----------------------------------------------------------------------------------------------------------------------------------------
E|-----------------------------------------------------------------------------------------------------------------------------------------

Stave 5:

E|---------------------------------------------------------------------------------------------8--8--11--8------8--15--
B|--11--9--11--9--11--9--11--9--9h11-----------------9------9------11--9--11--9--11--9--11--9---------------11---------
G|------------------------------------10--10--9--10-----10-----10------------------------------------------------------
D|---------------------------------------------------------------------------------------------------------------------
A|---------------------------------------------------------------------------------------------------------------------
E|---------------------------------------------------------------------------------------------------------------------

http://www.guitartabcreator.com
Guitar Tab Creator is intended to store guitar tab created through the tool. It currently does not support in-line text editing. Any text you place in here will be lost. If you need to comment on your tab, please use the "Tab Notes" section located below.