Sound will begin in 5 seconds

Beautiful Girl Bass Tab

01234567891011121314151617181920212223
E
B
G
D
A
E
B
0 1 2 3 4 5 6 7 8 9 10 11 12 13 14 15 16 17 18 19 20 21 22 23
Song Science #1: How Pros Use 6 Chords to Write Hit Songs
(/) Slide Up  (\) Slide Down  (h) Hammer On  (p) Pull Off  (b) Bend (r) Release (v) Vibrato

Stave 1:

E|------------------------------------------------------------------------------------------------
B|------------------------------------------------------------------------------------------------
G|------------------------------------------------------------------------------------------------
D|------------------------------------------------------------------------------------------------
A|--------------------------5--5--5--5--5--5--5--5--------------------------5--5------------------
E|--5--5--5--5--5--5--5--5--------------------------5--5--5--5--5--5--5--5----------5----5--5--5--

Stave 2:

E|-------------------------------------------------------------------------------------------------
B|-------------------------------------------------------------------------------------------------
G|-------------------------------------------------------------------------------------------------
D|-------------------------------------------------------------------------------------------------
A|--5--5--5--5--5--5--5--6--7--7--7--7--7--7--7--7--------------------------5--5--7----------------
E|--------------------------------------------------5--5--5--5--5--5--5--5-----------5----5--5--5--

Stave 3:

E|------------------------------------------------------------------------------------------------------
B|------------------------------------------------------------------------------------------------------
G|------------------------------------------------------------------------------------------------------
D|----------------------------------------------------------------------------------------7h9--7-----7--
A|--------------------4--5----5----5----7h9--7-----7--------------------4--5----5----5------------9-----
E|--5----5----5----5----------------------------9-----5----5----5----5----------------------------------

Stave 4:

E|------------------------------------------------
B|------------------------------------------------
G|------------------------------------------------
D|------------------------------------------------
A|------------------------------------------------
E|--5----5----5----5--5--5/9----7----9----7----14/

Stave 5:

E|---------------------------------------------------------------------------------------
B|---------------------------------------------------------------------------------------
G|---------------------------------------------------------------------------------------
D|--------------14--14/16--------------14--14/16--------------14--14/16--16--14------14--
A|--12--12--12-------------12--12--12-------------12--12--12---------------------16------
E|---------------------------------------------------------------------------------------

Stave 6:

E|---------------------------------------------------------------------------------------
B|---------------------------------------------------------------------------------------
G|--------------14--14/16--------------14--14/16--------------14--16--16/18--16--14--16--
D|--12--12--12-------------12--12--12-------------12--12--12-----------------------------
A|---------------------------------------------------------------------------------------
E|---------------------------------------------------------------------------------------

Stave 7:

E|--------------------------------------------------------------------------------------------------
B|--------------------------------------------------------------------------------------------------
G|----------14--------------14----------------------------------------------------------------------
D|--16--16------16--16--16------16----------14--------------14--------------16--------------16------
A|----------------------------------12--12------12--12--12------12--14--14------14--14--14------14--
E|--------------------------------------------------------------------------------------------------

Stave 8:

E|--------------------------
B|--------------------------
G|--------------------------
D|--------------------------
A|--5--5--5--5--7--7--7--7--
E|--------------------------

http://www.guitartabcreator.com
Guitar Tab Creator is intended to store guitar tab created through the tool. It currently does not support in-line text editing. Any text you place in here will be lost. If you need to comment on your tab, please use the "Tab Notes" section located below.