tab1

Chords

01234567891011121314151617181920212223
E
B
G
D
A
E
B
0 1 2 3 4 5 6 7 8 9 10 11 12 13 14 15 16 17 18 19 20 21 22 23
(/) Slide Up  (\) Slide Down  (h) Hammer On  (p) Pull Off  (b) Bend (r) Release (v) Vibrato

Stave 1:

D|---------------------------------------------------------------------------------------------------------------------
A|---------------------------------------------------------------------------------------------------------------------
F|---------------------------------------------------------------------------------------------------------------------
C|-----------------------------------------10--7--7--9--5-----------5--------3--------2--------3--------0--------------
G|-----7-----0-----------------7--------0------------------------------------------------------------------3--2--------
D|--0-----8-----8--5--5--7--3-----8--7---------------------1--1--1-----1--1-----1--1-----1--1-----1--1-----------4--5--

Stave 2:

D|-----------------------------------
A|-----------------------------------
F|--2--------------------------------
C|--2-----------3--------5--5--------
G|--0-----------3--------3--2--7--7--
D|--------------1--------------5--4--

Stave 3:

D|-----------------------------------------------------------------------------------------------
A|-----------------------------------------------------------------------------------------------
F|--2-----------------------------------2--------------------------------------------------------
C|--2-----------------------------------2--------------------3-----------------------------------
G|--0--0--0--0--0--0--0--0--0--3--2--0--0--0--0--0--0--0--0--3-----------------------3--2--------
D|-----------------------------------------------------------1--1--1--1--1--1--1--1--------5--4--

Stave 4:

D|-----------------------------
A|-----------------------------
F|-----------------------------
C|--------------2-----0-----0--
G|-----------------------------
D|--5--3--1--0-----0-----0-----

Stave 5:

D|-----------------
A|-----------------
F|-----------------
C|--5--3--2--1--3--
G|--7--5--3--1--3--
D|-----------0--1--

Stave 6:

D|------------------------------------------------------------------------------------------------------------------------------------
A|------------------------------------------------------------------------------------------------------------------------------------
F|--2--2-----------2--2-----------2--2-----------2--2-----------10--10-----------10--10-----------------------------------------------
C|--2--2-----------2--2-----------2--2-----------2--2-----------7---7------------7---7------5-----3-----2-----1-----2--0--------------
G|--0--0--0--0--0--0--0--0--0-----0--0--0--0--0--0--0--0--0--0----------0--0--0----------0-----0-----0-----0-----0--------3--2--------
D|------------------------------------------------------------------------------------------------------------------------------0--4--

Stave 7:

D|-----------------------------------------------------------------------
A|-----------------------------------------------------------------------
F|--2-----------5--------5--4--------------------------------------------
C|--2-----------5--------5--5--------3--------5-----3-----2--0-----------
G|--0-----------3--------3--2--------3-----0-----0-----0--------3--2--0--
D|-----------------------------------1-----------------------------------

							http://www.guitartabcreator.com
Instruments
{"strings":[[[".",".",".",".",".",".",".",".",".",".",".",".",".",".",".",".",".",".",".",".",".",".",".",".",".",".",".",".",".",".",".",".",".",".",".",".",".","."],[".",".",".",".",".",".",".",".",".",".",".",".",".",".",".",".",".",".",".",".",".",".",".",".",".",".",".",".",".",".",".",".",".",".",".",".",".","."],[".",".",".",".",".",".",".",".",".",".",".",".",".",".",".",".",".",".",".",".",".",".",".",".",".",".",".",".",".",".",".",".",".",".",".",".",".","."],[".",".",".",".",".",".",".",".",".",".",".",".",".",10,7,7,9,5,".",".",".",5,".",".",3,".",".",2,".",".",3,".",".",0,".",".",".","."],[".",7,".",0,".",".",".",".",".",7,".",".",0,".",".",".",".",".",".",".",".",".",".",".",".",".",".",".",".",".",".",".",".",".",3,2,".","."],[0,".",8,".",8,5,5,7,3,".",8,7,".",".",".",".",".",".",1,1,1,".",1,1,".",1,1,".",1,1,".",1,1,".",".",".",4,5]],[[".","_","_","_",".","_","_",".",".",".","."],[".","_","_","_",".","_","_",".",".",".","."],[2,"_","_","_",".","_","_",".",".",".","."],[2,"_","_","_",3,"_","_",5,5,".","."],[0,"_","_","_",3,"_","_",3,2,7,7],[".","_","_","_",1,"_","_",".",".",5,4]],[[".",".",".",".",".",".",".",".",".",".",".",".",".",".",".",".",".",".",".",".",".",".",".",".",".",".",".",".",".",".","."],[".",".",".",".",".",".",".",".",".",".",".",".",".",".",".",".",".",".",".",".",".",".",".",".",".",".",".",".",".",".","."],[2,".",".",".",".",".",".",".",".",".",".",".",2,".",".",".",".",".",".",".",".",".",".",".",".",".",".",".",".",".","."],[2,".",".",".",".",".",".",".",".",".",".",".",2,".",".",".",".",".",".",3,".",".",".",".",".",".",".",".",".",".","."],[0,0,0,0,0,0,0,0,0,3,2,0,0,0,0,0,0,0,0,3,".",".",".",".",".",".",".",3,2,".","."],[".",".",".",".",".",".",".",".",".",".",".",".",".",".",".",".",".",".",".",1,1,1,1,1,1,1,1,".",".",5,4]],[[".",".",".",".",".",".",".",".","."],[".",".",".",".",".",".",".",".","."],[".",".",".",".",".",".",".",".","."],[".",".",".",".",2,".",0,".",0],[".",".",".",".",".",".",".",".","."],[5,3,1,0,".",0,".",0,"."]],[[".",".",".",".","."],[".",".",".",".","."],[".",".",".",".","."],[5,3,2,1,3],[7,5,3,1,3],[".",".",".",0,1]],[[".",".",".",".",".",".",".",".",".","_",".",".",".",".",".",".",".",".",".",".",".",".",".",".",".",".",".",".",".",".",".",".",".",".",".",".",".",".",".",".",".","."],[".",".",".",".",".",".",".",".",".","_",".",".",".",".",".",".",".",".",".",".",".",".",".",".",".",".",".",".",".",".",".",".",".",".",".",".",".",".",".",".",".","."],[2,2,".",".",".",2,2,".",".","_",2,2,".",".",".",2,2,".",".",".",10,10,".",".",".",10,10,".",".",".",".",".",".",".",".",".",".",".",".",".",".","."],[2,2,".",".",".",2,2,".",".","_",2,2,".",".",".",2,2,".",".",".",7,7,".",".",".",7,7,".",5,".",3,".",2,".",1,".",2,0,".",".",".","."],[0,0,0,0,0,0,0,0,0,"_",0,0,0,0,0,0,0,0,0,0,".",".",0,0,0,".",".",0,".",0,".",0,".",0,".",0,".",".",3,2,".","."],[".",".",".",".",".",".",".",".",".","_",".",".",".",".",".",".",".",".",".",".",".",".",".",".",".",".",".",".",".",".",".",".",".",".",".",".",".",".",".",".",0,4]],[[".","_","_","_",".","_","_",".",".",".",".","_",null,null,null,null,null,null,null,null,null,null,null,null,null,null,null,null,null,null,null,null,null,null,null,null,null,null,null,null,"_",".",".",".",".",".",".",".",".",".","."],[".","_","_","_",".","_","_",".",".",".",".","_",null,null,null,null,null,null,null,null,null,null,null,null,null,null,null,null,null,null,null,null,null,null,null,null,null,null,null,null,"_",".",".",".",".",".",".",".",".",".","."],[2,"_","_","_",5,"_","_",5,4,".",".","_",null,null,null,null,null,null,null,null,null,null,null,null,null,null,null,null,null,null,null,null,null,null,null,null,null,null,null,null,"_",".",".",".",".",".",".",".",".",".","."],[2,"_","_","_",5,"_","_",5,5,".",".",3,null,null,null,null,null,null,null,null,null,null,null,null,null,null,null,null,null,null,null,null,null,null,null,null,null,null,null,null,"_",".",5,".",3,".",2,0,".",".","."],[0,"_","_","_",3,"_","_",3,2,".",".",3,null,null,null,null,null,null,null,null,null,null,null,null,null,null,null,null,null,null,null,null,null,null,null,null,null,null,null,null,"_",0,".",0,".",0,".",".",3,2,0],[".","_","_","_",".","_","_",".",".",".",".",1,null,null,null,null,null,null,null,null,null,null,null,null,null,null,null,null,null,null,null,null,null,null,null,null,null,null,null,null,"_",".",".",".",".",".",".",".",".",".","."]]],"numberofstrings":6,"notes":["D","A","F","C","G","D"],"capo":0,"stringnotes":["D3","A2","F2","C2","G1","D1"],"comments":["Stave 1:","Stave 2:","Stave 3:","Stave 4:","Stave 5:","Stave 6:","Stave 7:"],"timing":[["W","W","W","W","W","W","W","W","W","W","W","W","W","W","W","W","W","W","W","W","W","W","W","W","W","W","W","W","W","W","W","W","W","W","W","W","W","W"],["W",null,null,null,"W",null,null,"W","W","W","W"],["W","W","W","W","W","W","W","W","W","W","W","W","W","W","W","W","W","W","W","W","W","W","W","W","W","W","W","W","W","W","W"],["W","W","W","W","W","W","W","W","W"],["W","W","W","W","W"],["W","W","W","W","W","W","W","W","W","W","W","W","W","W","W","W","W","W","W","W","W","W","W","W","W","W","W","W","W","W","W","W","W","W","W","W","W","W","W","W","W","W"],["W",null,null,null,"W",null,"W","W","W","W","W","W",null,null,null,null,null,null,null,null,null,null,null,null,null,null,null,null,null,null,null,null,null,null,null,null,null,null,null,null,null,"W","W","W","W","W","W","W","W","W","W"]],"timingvisible":false,"tabcounter":51,"stave":6,"totalstaves":7,"instrument":"6guitar","selectedtuning":"Full Step Down","version":"13"}

Member for

1 month 2 weeks
Submitted by bgl314 on Tue, 2020-12-01 10:05