yesterday chorus

01234567891011121314151617181920212223
E
B
G
D
A
E
B
0 1 2 3 4 5 6 7 8 9 10 11 12 13 14 15 16 17 18 19 20 21 22 23
(/) Slide Up  (\) Slide Down  (h) Hammer On  (p) Pull Off  (b) Bend (r) Release (v) Vibrato

Stave 1:

E|--------------------------|--0-----2-----3-----2p0--|--2--------0--------0-----|----------------------------|--
B|--0-----------0-----------|--0-----3-----1----------|--1-----------3--------0--|-----------0h1--0--------0--|--
G|-----------2-----------2--|-----0-----0-----0-------|--------2--------2--------|--------0-------------0-----|--
D|--------2-----------1-----|--2-----0----------------|-----2--------0-----------|-----0-------------0--------|--
A|--------------2-----------|--------------3----------|--0-----------------------|----------------------------|--
E|--2-----------------------|-------------------------|--------------------------|--3-------------------------|--

Stave 2:

E|--------------------------|--0-----2-----3-----2p0--|--2--------0--------2-----|--3-----------------------
B|--0-----------0-----------|--0-----3-----1----------|--1-----------3-----------|-----------0-----1-----0--
G|-----------2-----------2--|-----0-----0-----0-------|--------2--------2--------|--------0-----0-----0-----
D|--------2-----------1-----|--2-----0----------------|-----2--------0-----------|-----0--------------------
A|--------------2-----------|--------------3----------|--0-----------------------|--------------------------
E|--2-----------------------|-------------------------|--------------------------|--3-----------------------

							http://www.guitartabcreator.com
Chords

Instruments
{"strings":[[[".","_",".",".",".","_",".",".","|",0,".",2,".",3,".",2,"p",0,"|",2,".",".",0,".",".",0,".","|",".",".",".",".",".",".",".",".",".",".","|"],[0,"_",".",".",0,"_",".",".","|",0,".",3,".",1,".",".",".",".","|",1,".",".",".",3,".",".",0,"|",".",".",".",0,"h",1,0,".",".",0,"|"],[".","_",".",2,".","_",".",2,"|",".",0,".",0,".",0,".",".",".","|",".",".",2,".",".",2,".",".","|",".",".",0,".",".",".",".",".",0,".","|"],[".","_",2,".",".","_",1,".","|",2,".",0,".",".",".",".",".",".","|",".",2,".",".",0,".",".",".","|",".",0,".",".",".",".",".",0,".",".","|"],[".","_",".",".",2,"_",".",".","|",".",".",".",".",3,".",".",".",".","|",0,".",".",".",".",".",".",".","|",".",".",".",".",".",".",".",".",".",".","|"],[2,"_",".",".",".","_",".",".","|",".",".",".",".",".",".",".",".",".","|",".",".",".",".",".",".",".",".","|",3,".",".",".",".",".",".",".",".",".","|"]],[[".","_",".",".",".","_",".",".","|",0,".",2,".",3,".",2,"p",0,"|",2,".",".",0,".",".",2,"_","|",3,".",".",".",".",".",".","."],[0,"_",".",".",0,"_",".",".","|",0,".",3,".",1,".",".",".",".","|",1,".",".",".",3,".",".","_","|",".",".",".",0,".",1,".",0],[".","_",".",2,".","_",".",2,"|",".",0,".",0,".",0,".",".",".","|",".",".",2,".",".",2,".","_","|",".",".",0,".",0,".",0,"."],[".","_",2,".",".","_",1,".","|",2,".",0,".",".",".",".",".",".","|",".",2,".",".",0,".",".","_","|",".",0,".",".",".",".",".","."],[".","_",".",".",2,"_",".",".","|",".",".",".",".",3,".",".",".",".","|",0,".",".",".",".",".",".","_","|",".",".",".",".",".",".",".","."],[2,"_",".",".",".","_",".",".","|",".",".",".",".",".",".",".",".",".","|",".",".",".",".",".",".",".","_","|",3,".",".",".",".",".",".","."]]],"numberofstrings":6,"notes":["E","B","G","D","A","E","B"],"capo":0,"stringnotes":["E4","B3","G3","D3","A2","E2"],"comments":["Stave 1:","Stave 2:"],"timing":[["W","W","W","W","W","W","W","W",null,"W","W","W","W","W","W","W",null,"W",null,"W","W","W","W","W","W","W","W",null,"W","W","W","W",null,"W","W","W","W","W"],["W","W","W","W","W","W","W","W",null,"W","W","W","W","W","W","W",null,"W",null,"W","W","W","W","W","W","W","W","W","W","W","W","W","W","W","W","W"]],"timingvisible":false,"tabcounter":36,"stave":1,"totalstaves":2,"instrument":"6guitar","selectedtuning":"6_standard","version":"13"}

Member for

1 year 1 month
Submitted by bf on Sun, 2022-01-09 16:47