sound of silence

01234567891011121314151617181920212223
E
B
G
D
A
E
B
0 1 2 3 4 5 6 7 8 9 10 11 12 13 14 15 16 17 18 19 20 21 22 23
(/) Slide Up  (\) Slide Down  (h) Hammer On  (p) Pull Off  (b) Bend (r) Release (v) Vibrato

Stave 1:

E|--------------------------------------------------------------------------------------------------------0--0--------------------------------------0-----0-----
B|-----------------0--0--3--------------------------------------------------------------------0--0--3--3--------3-----------------------0--0--3--3--------------
G|-----------0--0--------2-----2--------2-----------------2--2-----0-----------------0--0--0-----------------------------0--------0--0-----------------0--------
D|-----2--2-----------------4--------4-----4--------4--4--------4--------2--------------2-----------------------------0-----0-----------------0-----------------
A|-----------------------5--------5-----------5--5--------------------2--------2--------------------2-----3--3--------------------------2-----------3-----3-----
E|--0--------------------------------------------------------------0--------0-----0-----------3--------------------3-----------3--3-----------------------------

Stave 2:

E|--------------------------0-----------0--2--3--3-----2--0--------------------0--------------------------------------------------------------
B|--3-----------------0--3--------------------------------------3-----------------3--0-----------------0-----------------3--------------------
G|-----------0-----0--------------0--------------------------------------0--------------0-----------0-----0-----0--0--0--------2--------0-----
D|--------0-----------0--------2--------2-----------2--------2--------0--------0-----------0--------------------------------0--------4-----2--
A|--------------------------3--------3--------3--------3--------------------------------------------------------------------------------------
E|-----3--------3--------------------------------------------------3--------3--------3--------2--0-----------3-----------2--------2-----0-----

							http://www.guitartabcreator.com
Chords

Instruments
{"strings":[[[".",".",".",".",".",".",".",".",".",".",".",".",".",".",".",".",".",".",".",".",".",".",".",".",".",".",".",".",".",".",".",".",".",".",0,0,".",".",".",".",".",".",".",".",".",".",".",".",0,".",0,"."],[".",".",".",".",".",0,0,3,".",".",".",".",".",".",".",".",".",".",".",".",".",".",".",".",".",".",".",".",".",".",0,0,3,3,".",".",3,".",".",".",".",".",".",".",0,0,3,3,".",".",".","."],[".",".",".",0,0,".",".",2,".",2,".",".",2,".",".",".",".",".",2,2,".",0,".",".",".",".",".",0,0,0,".",".",".",".",".",".",".",".",".",0,".",".",0,0,".",".",".",".",".",0,".","."],[".",2,2,".",".",".",".",".",4,".",".",4,".",4,".",".",4,4,".",".",4,".",".",2,".",".",".",".",2,".",".",".",".",".",".",".",".",".",0,".",0,".",".",".",".",".",0,".",".",".",".","."],[".",".",".",".",".",".",".",5,".",".",5,".",".",".",5,5,".",".",".",".",".",".",2,".",".",2,".",".",".",".",".",".",2,".",3,3,".",".",".",".",".",".",".",".",2,".",".",".",3,".",3,"."],[0,".",".",".",".",".",".",".",".",".",".",".",".",".",".",".",".",".",".",".",".",0,".",".",0,".",0,".",".",".",3,".",".",".",".",".",".",3,".",".",".",3,3,".",".",".",".",".",".",".",".","."]],[[".",".",".",".",".",".",".",".",0,".",".",".",0,2,3,3,".",2,0,".",".",".",".",".",".",0,".",".",".",".",".",".",".",".",".",".",".",".",".",".",".",".",".",".",".","."],[3,".",".",".",".",".",0,3,".",".",".",".",".",".",".",".",".",".",".",".",3,".",".",".",".",".",3,0,".",".",".",".",".",0,".",".",".",".",".",3,".",".",".",".",".","."],[".",".",".",0,".",0,".",".",".",".",0,".",".",".",".",".",".",".",".",".",".",".",".",0,".",".",".",".",0,".",".",".",0,".",0,".",0,0,0,".",".",2,".",".",0,"."],[".",".",0,".",".",".",0,".",".",2,".",".",2,".",".",".",2,".",".",2,".",".",0,".",".",0,".",".",".",0,".",".",".",".",".",".",".",".",".",".",0,".",".",4,".",2],[".",".",".",".",".",".",".",".",3,".",".",3,".",".",3,".",".",3,".",".",".",".",".",".",".",".",".",".",".",".",".",".",".",".",".",".",".",".",".",".",".",".",".",".",".","."],[".",3,".",".",3,".",".",".",".",".",".",".",".",".",".",".",".",".",".",".",".",3,".",".",3,".",".",3,".",".",2,0,".",".",".",3,".",".",".",2,".",".",2,".",0,"."]]],"numberofstrings":6,"notes":["E","B","G","D","A","E","B"],"capo":0,"stringnotes":["E4","B3","G3","D3","A2","E2"],"comments":["Stave 1:","Stave 2:"],"timing":[["W","W","W","W","W","W","W","W","W","W","W","W","W","W","W","W","W","W","W","W","W","W","W","W","W","W","W","W","W","W","W","W","W","W","W","W","W","W","W","W","W","W","W","W","W","W","W","W","W","W","W"],["W","W","W","W","W","W","W","W","W","W","W","W","W","W","W","W","W","W","W","W","W","W","W","W","W","W","W","W","W","W","W","W","W","W","W","W","W","W","W","W","W","W","W","W","W","W","W"]],"timingvisible":false,"tabcounter":46,"stave":1,"totalstaves":2,"instrument":"6guitar","selectedtuning":"6_standard","version":"13"}

Member for

1 year 1 month
Submitted by bf on Mon, 2021-04-05 16:53