Sound will begin in 5 seconds

Hall Of Eight

Chords
01234567891011121314151617181920212223
E
B
G
D
A
E
B
0 1 2 3 4 5 6 7 8 9 10 11 12 13 14 15 16 17 18 19 20 21 22 23
Song Science #1: How Pros Use 6 Chords to Write Hit Songs
(/) Slide Up  (\) Slide Down  (h) Hammer On  (p) Pull Off  (b) Bend (r) Release (v) Vibrato

Stave 1:

E|--------------------------------------------------------------------------------------------------
B|--------------------------------------------------------------------------------------------------
G|--------------------------------------------------------------------------------------------------
D|-----3-----3-----3-----3-----2-----2-----2-----2--------------------------------------------------
A|--5-----5-----5-----5-----3-----3-----3-----3--------2-----2-----2-----2-----2-----2-----2-----2--
E|--------------------------------------------------3-----3-----3-----3-----3-----3-----3-----3-----

Stave 2:

E|----------------------------------------------------------------------------------------------------------
B|----------------------------------------------------------------------------------------------------------
G|--10--10--10--10--10--10--10--10--5--5--5--5--5--5--5--5--7--7--7--7--7--7--7--7--7--7--7--7--7--7--7--7--
D|--10--10--10--10--10--10--10--10--5--5--5--5--5--5--5--5--7--7--7--7--7--7--7--7--7--7--7--7--7--7--7--7--
A|--8---8---8---8---8---8---8---8---3--3--3--3--3--3--3--3--5--5--5--5--5--5--5--5--5--5--5--5--5--5--5--5--
E|----------------------------------------------------------------------------------------------------------

Stave 3:

E|--8---8---8---8---8---8---8---8---4--4--4--4--4--4--4--4--6--6--6--6--6--6--6--6--6--6--6--6--6--6--6--6--
B|--8---8---8---8---8---8---8---8---4--4--4--4--4--4--4--4--6--6--6--6--6--6--6--6--6--6--6--6--6--6--6--6--
G|--8---8---8---8---8---8---8---8---5--5--5--5--5--5--5--5--7--7--7--7--7--7--7--7--7--7--7--7--7--7--7--7--
D|--10--10--10--10--10--10--10--10--6--6--6--6--6--6--6--6--8--8--8--8--8--8--8--8--8--8--8--8--8--8--8--8--
A|--10--10--10--10--10--10--10--10--6--6--6--6--6--6--6--6--8--8--8--8--8--8--8--8--8--8--8--8--8--8--8--8--
E|--8---8---8---8---8---8---8---8---4--4--4--4--4--4--4--4--6--6--6--6--6--6--6--6--6--6--6--6--6--6--6--6--

Stave 4:

E|--8---8---8---8---8---8---8---8---4--4--4--4--4--4--4--4--6--6--6--6--6--6--6--6--1--1--1--1--1--1--1--1--
B|--8---8---8---8---8---8---8---8---4--4--4--4--4--4--4--4--6--6--6--6--6--6--6--6--1--1--1--1--1--1--1--1--
G|--8---8---8---8---8---8---8---8---5--5--5--5--5--5--5--5--7--7--7--7--7--7--7--7--2--2--2--2--2--2--2--2--
D|--10--10--10--10--10--10--10--10--6--6--6--6--6--6--6--6--8--8--8--8--8--8--8--8--3--3--3--3--3--3--3--3--
A|--10--10--10--10--10--10--10--10--6--6--6--6--6--6--6--6--8--8--8--8--8--8--8--8--3--3--3--3--3--3--3--3--
E|--8---8---8---8---8---8---8---8---4--4--4--4--4--4--4--4--6--6--6--6--6--6--6--6--1--1--1--1--1--1--1--1--

http://www.guitartabcreator.com
Guitar Tab Creator is intended to store guitar tab created through the tool. It currently does not support in-line text editing. Any text you place in here will be lost. If you need to comment on your tab, please use the "Tab Notes" section located below.