Vozes (Shakal)

Chords

01234567891011121314151617181920212223
E
B
G
D
A
E
B
0 1 2 3 4 5 6 7 8 9 10 11 12 13 14 15 16 17 18 19 20 21 22 23
(/) Slide Up  (\) Slide Down  (h) Hammer On  (p) Pull Off  (b) Bend (r) Release (v) Vibrato

Stave 1:

G|-------|--------|--
D|-------|--------|--
A|-------|--5--7--|--
E|--0h2--|--------|--
B|-------|--------|--

Stave 2:

G|-----|-----|-----|-----
D|-----|-----|-----|-----
A|-----|-----|--2--|--4--
E|--4--|--0--|-----|-----
B|-----|-----|-----|-----

Stave 3:

G|-----|-----|-----|-------|--
D|-----|-----|-----|--2h4--|--
A|-----|--2--|--4--|-------|--
E|--2--|-----|-----|-------|--
B|-----|-----|-----|-------|--

Stave 4:

G|--------------------|--------------------
D|--------------------|--------------------
A|--------------------|--------------------
E|--------------------|--------------------
B|--2-----------------|--2-----------------

							http://www.guitartabcreator.com
Instruments
{"title":"Vozes (Shakal)","strings":[[[".",".",".","|",".",".","|"],[".",".",".","|",".",".","|"],[".",".",".","|",5,7,"|"],[0,"h",2,"|",".",".","|"],[".",".",".","|",".",".","|"]],[[".","|",".","|",".","|","."],[".","|",".","|",".","|","."],[".","|",".","|",2,"|",4],[4,"|",0,"|",".","|","."],[".","|",".","|",".","|","."]],[[".","|",".","|",".","|",".",".",".","|"],[".","|",".","|",".","|",2,"h",4,"|"],[".","|",2,"|",4,"|",".",".",".","|"],[2,"|",".","|",".","|",".",".",".","|"],[".","|",".","|",".","|",".",".",".","|"]],[[".","_","_","_","_","_","|",".","_","_","_","_","_"],[".","_","_","_","_","_","|",".","_","_","_","_","_"],[".","_","_","_","_","_","|",".","_","_","_","_","_"],[".","_","_","_","_","_","|",".","_","_","_","_","_"],[2,"_","_","_","_","_","|",2,"_","_","_","_","_"]]],"numberofstrings":5,"notes":["G","D","A","E","B"],"capo":0,"stringnotes":["G2","D2","A1","E1","B0"],"comments":["Stave 1:","Stave 2:","Stave 3:","Stave 4:"],"timing":[["W",null,"W","W","W","W"],["W",null,"W","W","W",null,"W"],["W",null,"W",null,"W",null,"W",null,"W"],["W",null,null,null,null,null,null,"W"]],"timingvisible":false,"tabcounter":13,"stave":3,"totalstaves":4,"instrument":"5bass","selectedtuning":"5bass_standard","version":"13"}

Member for

1 year
Submitted by Bento16 on Sun, 2019-12-01 07:12