Born United (Bass)

Chords

01234567891011121314151617181920212223
E
B
G
D
A
E
B
0 1 2 3 4 5 6 7 8 9 10 11 12 13 14 15 16 17 18 19 20 21 22 23
(/) Slide Up  (\) Slide Down  (h) Hammer On  (p) Pull Off  (b) Bend (r) Release (v) Vibrato

Intro:

E|-----------------|-----------------|-----------------|--
B|-----------------|-----------------|-----------------|--
G|-----------------|-----------------|-----------------|--
D|-----------------|-----------------|-----------------|--
A|-----------------|-----------------|-----------------|--
E|--0--0--0--0--2--|-----5--5--0--2--|--0--------3-----|--

Stave 2:

E|--------------------------------|--------------------------------|--
B|--------------------------------|--------------------------------|--
G|--------------------------------|--------------------------------|--
D|--------------------------------|--------------------------------|--
A|--------------------------------|--------------------------------|--
E|--2-----0--2--2-----5--3--0--3--|--2-----0--1--1-----5--3--0--3--|--

Stave 3:

E|-----------------------------|--------|--------|--------|-----------
B|-----------------------------|--------|--------|--------|-----------
G|-----------------------------|--------|--------|--------|-----------
D|-----------------------------|--7-----|--------|--7-----|--3--------
A|-----------------------------|--------|--------|--------|-----3-----
E|--5-----0--0--5-----0--0--5--|-----5--|--3--5--|-----5--|--------3--

Stave 4:

E|--------------|---------------|-----------|--
B|--------------|---------------|-----------|--
G|--------------|--2--1---------|--2--------|--
D|--2--2--3-----|--------3p2h3--|-----------|--
A|--------------|---------------|-----2--3--|--
E|-----------1--|---------------|-----------|--

Solo:

E|--------------------------------------|--
B|--------------------------------------|--
G|-----5-----------------5--------------|--
D|--------------6--5--------------------|--
A|--3-----3--4--------3-----3-----7-----|--
E|-----------------------------5-----5--|--

Stave 6:

E|----------------------------------------------|--
B|----------------------------------------------|--
G|----------------------------------------------|--
D|-----7-----------5----------------------------|--
A|--------------1-------------------------------|--
E|--5-----5--3-----------12--12--12-----12--12--|--

							http://www.guitartabcreator.com
genre
Instruments
{"title":"Born United (Bass)","strings":[[[".",".",".",".",".","|","_",".",".",".",".","|",".","_","_",".","_","|"],[".",".",".",".",".","|","_",".",".",".",".","|",".","_","_",".","_","|"],[".",".",".",".",".","|","_",".",".",".",".","|",".","_","_",".","_","|"],[".",".",".",".",".","|","_",".",".",".",".","|",".","_","_",".","_","|"],[".",".",".",".",".","|","_",".",".",".",".","|",".","_","_",".","_","|"],[0,0,0,0,2,"|","_",5,5,0,2,"|",0,"_","_",3,"_","|"]],[[".","_",".",".",".","_",".",".",".",".","|",".","_",".",".",".","_",".",".",".",".","|"],[".","_",".",".",".","_",".",".",".",".","|",".","_",".",".",".","_",".",".",".",".","|"],[".","_",".",".",".","_",".",".",".",".","|",".","_",".",".",".","_",".",".",".",".","|"],[".","_",".",".",".","_",".",".",".",".","|",".","_",".",".",".","_",".",".",".",".","|"],[".","_",".",".",".","_",".",".",".",".","|",".","_",".",".",".","_",".",".",".",".","|"],[2,"_",0,2,2,"_",5,3,0,3,"|",2,"_",0,1,1,"_",5,3,0,3,"|"]],[[".","_",".",".",".","_",".",".",".","|",".",".","|",".",".","|",".",".","|",".",".","."],[".","_",".",".",".","_",".",".",".","|",".",".","|",".",".","|",".",".","|",".",".","."],[".","_",".",".",".","_",".",".",".","|",".",".","|",".",".","|",".",".","|",".",".","."],[".","_",".",".",".","_",".",".",".","|",7,".","|",".",".","|",7,".","|",3,".","."],[".","_",".",".",".","_",".",".",".","|",".",".","|",".",".","|",".",".","|",".",3,"."],[5,"_",0,0,5,"_",0,0,5,"|",".",5,"|",3,5,"|",".",5,"|",".",".",3]],[[".",".",".",".","|",".",".",".",".",".",".",".","|",".",".",".","|"],[".",".",".",".","|",".",".",".",".",".",".",".","|",".",".",".","|"],[".",".",".",".","|",2,1,".",".",".",".",".","|",2,".",".","|"],[2,2,3,".","|",".",".",3,"p",2,"h",3,"|",".",".",".","|"],[".",".",".",".","|",".",".",".",".",".",".",".","|",".",2,3,"|"],[".",".",".",1,"|",".",".",".",".",".",".",".","|",".",".",".","|"]],[[".",".",".",".",".",".",".",".",".",".",".",".","|"],[".",".",".",".",".",".",".",".",".",".",".",".","|"],[".",5,".",".",".",".",".",5,".",".",".",".","|"],[".",".",".",".",6,5,".",".",".",".",".",".","|"],[3,".",3,4,".",".",3,".",3,".",7,".","|"],[".",".",".",".",".",".",".",".",".",5,".",5,"|"]],[[".",".",".",".",".",".","_",".",".",".","_",".",".","|"],[".",".",".",".",".",".","_",".",".",".","_",".",".","|"],[".",".",".",".",".",".","_",".",".",".","_",".",".","|"],[".",7,".",".",".",5,"_",".",".",".","_",".",".","|"],[".",".",".",".",1,".","_",".",".",".","_",".",".","|"],[5,".",5,3,".",".","_",12,12,12,"_",12,12,"|"]]],"numberofstrings":6,"notes":["E","B","G","D","A","E","B"],"capo":0,"stringnotes":["E4","B3","G3","D3","A2","E2"],"comments":["Intro:","Stave 2:","Stave 3:","Stave 4:","Solo:","Stave 6:"],"timing":[["W","W","W","W","W","W","W","W","W","W","W","W","W","W",null,"W"],["W","W","W","W","W","W","W","W","W","W","W","W","W","W","W","W",null,"W","W","W","W"],["W","W","W","W","W",null,"W","W","W","W","W","W",null,"W","W",null,"W","W",null,"W","W","W"],["W","W","W","W",null,"W","W","W",null,"W",null,"W","W","W","W","W"],["W","W","W","W","W","W","W","W","W","W","W","W"],["W","W","W","W","W","W",null,"W","W","W",null,"W","W"]],"timingvisible":false,"tabcounter":14,"stave":5,"totalstaves":6,"instrument":"6guitar","selectedtuning":"6_standard","version":"13"}

Member for

10 months
Submitted by Bento16 on Thu, 2019-08-29 09:54