Sound will begin in 5 seconds

i put a spell on you - ccr (riffs commonly mis-tabbed parts)

01234567891011121314151617181920212223
E
B
G
D
A
E
B
0 1 2 3 4 5 6 7 8 9 10 11 12 13 14 15 16 17 18 19 20 21 22 23
Song Science #1: How Pros Use 6 Chords to Write Hit Songs
(/) Slide Up  (\) Slide Down  (h) Hammer On  (p) Pull Off  (b) Bend (r) Release (v) Vibrato

Stave 1:

E|-------------------
B|-------------------
G|----------------7--
D|--------5--7/9-----
A|-----7-------------
E|-------------------

Stave 2:

E|----------------
B|----------------
G|--9b11r9p7------
D|------------10--
A|----------------
E|----------------

Stave 3:

E|-------------------------
B|-------------------------
G|--9b11--11r9p7------7h9--
D|----------------10-------
A|-------------------------
E|-------------------------

Stave 4:

E|----------------------------------------------------------
B|----------------------------------------------------------
G|--12--12--12--12--12b14--12b14--12b14--12b14r12--9--7--9--
D|----------------------------------------------------------
A|----------------------------------------------------------
E|----------------------------------------------------------

Stave 5:

E|-----------------------------------12---------------------------
B|----------------------------------------------------------------
G|--------14--14--14--14--14--14b16------16r14p12------12h14--12--
D|--9/14-------------------------------------------14-------------
A|----------------------------------------------------------------
E|----------------------------------------------------------------

Stave 6:

E|--
B|--
G|--
D|--
A|--
E|--

http://www.guitartabcreator.com
Guitar Tab Creator is intended to store guitar tab created through the tool. It currently does not support in-line text editing. Any text you place in here will be lost. If you need to comment on your tab, please use the "Tab Notes" section located below.