Fitz 50

01234567891011121314151617181920212223
E
B
G
D
A
E
B
0 1 2 3 4 5 6 7 8 9 10 11 12 13 14 15 16 17 18 19 20 21 22 23
(/) Slide Up  (\) Slide Down  (h) Hammer On  (p) Pull Off  (b) Bend (r) Release (v) Vibrato

Stave 1:

G|-----------------------------------------------------------------------------------------------------------------------------
D|--------------------------------------------------------------------------------------0--------------------------------------
A|--3-----0--3--------3-----3-----3-----0--3--------3-----------3--0-----0-----------3-----------3-----0--3--------3-----3-----
E|-----0--------1--1-----3-----3-----0--------1--4-----3--4--3--------0-----0--3--1--------3--3-----0--------1--1-----3-----3--
B|-----------------------------------------------------------------------------------------------------------------------------

Stave 2:

G|--------------------------------------------------------------------------------------------------------------------------------------
D|--------------------------------------------------------0--------------------------------0-----------0-----------0--------------------
A|--3-----0--3--------3-----------3--0-----0-----------3-----------3-----0--3--------3--0--------3--0--------3--0--------3-----------3--
E|-----0--------1--4-----3--4--3--------0-----0--3--1--------3--3-----0--------1--4-----------3-----------3-----------3-----4--4--3-----
B|--------------------------------------------------------------------------------------------------------------------------------------

							http://www.guitartabcreator.com
Chords

Instruments
{"strings":[[[".",".",".",".",".",".",".",".",".",".",".",".",".",".",".",".",".",".",".",".",".",".",".",".",".",".",".",".",".",".",".",".",".",".",".",".",".",".",".",".","."],[".",".",".",".",".",".",".",".",".",".",".",".",".",".",".",".",".",".",".",".",".",".",".",".",".",".",".",".",0,".",".",".",".",".",".",".",".",".",".",".","."],[3,".",0,3,".",".",3,".",3,".",3,".",0,3,".",".",3,".",".",".",3,0,".",0,".",".",".",3,".",".",".",3,".",0,3,".",".",3,".",3,"."],[".",0,".",".",1,1,".",3,".",3,".",0,".",".",1,4,".",3,4,3,".",".",0,".",0,3,1,".",".",3,3,".",0,".",".",1,1,".",3,".",3],[".",".",".",".",".",".",".",".",".",".",".",".",".",".",".",".",".",".",".",".",".",".",".",".",".",".",".",".",".",".",".",".",".",".",".",".",".",".",".",".","."]],[[".",".",".",".",".",".",".",".",".",".",".",".",".",".",".",".",".",".",".",".",".",".",".",".",".",".",".",".",".",".",".",".",".",".",".",".",".",".",".",".",".",".",".","."],[".",".",".",".",".",".",".",".",".",".",".",".",".",".",".",".",".",".",0,".",".",".",".",".",".",".",".",".",".",0,".",".",".",0,".",".",".",0,".",".",".",".",".","."],[3,".",0,3,".",".",3,".",".",".",3,0,".",0,".",".",".",3,".",".",".",3,".",0,3,".",".",3,0,".",".",3,0,".",".",3,0,".",".",3,".",".",".",3],[".",0,".",".",1,4,".",3,4,3,".",".",0,".",0,3,1,".",".",3,3,".",0,".",".",1,4,".",".",".",3,".",".",".",3,".",".",".",3,".",4,4,3,"."],[".",".",".",".",".",".",".",".",".",".",".",".",".",".",".",".",".",".",".",".",".",".",".",".",".",".",".",".",".",".",".",".",".",".",".",".",".",".",".",".",".",".",".","."]]],"numberofstrings":5,"notes":["G","D","A","E","B"],"capo":0,"stringnotes":["G2","D2","A1","E1","B0"],"comments":["Stave 1:","Stave 2:"],"timing":[["W","W","W","W","W","W","W","W","W","W","W","W","W","W","W","W","W","W","W","W","W","W","W","W","W","W","W","W","W","W","W","W","W","W","W","W","W","W","W","W","W"],["W","W","W","W","W","W","W","W","W","W","W","W","W","W","W","W","W","W","W","W","W","W","W","W","W","W","W","W","W","W","W","W","W","W","W","W","W","W","W","W","W","W","W","W"]],"timingvisible":false,"tabcounter":44,"stave":1,"totalstaves":2,"instrument":"5bass","selectedtuning":"5bass","version":"13"}

Member for

2 months 1 week
Submitted by benl on Tue, 2020-11-17 06:25