Q - Take me where your heart is

01234567891011121314151617181920212223
E
B
G
D
A
E
B
0 1 2 3 4 5 6 7 8 9 10 11 12 13 14 15 16 17 18 19 20 21 22 23
(/) Slide Up  (\) Slide Down  (h) Hammer On  (p) Pull Off  (b) Bend (r) Release (v) Vibrato

Stave 1:

E|-----------------------------------------------------------------------------------------
B|--------------------------------------------------6-----6-----------7-----------6-----6--
G|--------3-----------6-----6-----------8--------------6-----------------8-----------6-----
D|-----------4-----------6-----------------9-----------------------8--------8--------------
A|-----4--------4--------------------9--------9-----------------6--------------------------
E|--2-----------------------------7--------------------------------------------------------

Stave 2:

E|-----------------------------------------------------------------------------------------
B|-----------------------------------------------------------------------------------------
G|--------8-----------6-----6--------------------------------------------------------------
D|-----------9-----------6-----------------------------------------------------------------
A|-----9--------9--------------------------------------------------------------------------
E|--7--------------------------------------------------------------------------------------

							http://www.guitartabcreator.com
Chords

Instruments
{"strings":[[[".",".",".",".",".","_",".",".",".","_",".",".",".",".",".","_",".",".",".","_",".",".",".",".",".","_",".",".","."],[".",".",".",".",".","_",".",".",".","_",".",".",".",".",".","_",6,".",6,"_",".",".",7,".",".","_",6,".",6],[".",".",3,".",".","_",6,".",6,"_",".",".",8,".",".","_",".",6,".","_",".",".",".",8,".","_",".",6,"."],[".",".",".",4,".","_",".",6,".","_",".",".",".",9,".","_",".",".",".","_",".",8,".",".",8,"_",".",".","."],[".",4,".",".",4,"_",".",".",".","_",".",9,".",".",9,"_",".",".",".","_",6,".",".",".",".","_",".",".","."],[2,".",".",".",".","_",".",".",".","_",7,".",".",".",".","_",".",".",".","_",".",".",".",".",".","_",".",".","."]],[[".",".",".",".",".","_",".",".",".","_","_","_","_","_","_","_","_","_","_","_","_","_","_","_","_","_","_","_","_"],[".",".",".",".",".","_",".",".",".","_","_","_","_","_","_","_","_","_","_","_","_","_","_","_","_","_","_","_","_"],[".",".",8,".",".","_",6,".",6,"_","_","_","_","_","_","_","_","_","_","_","_","_","_","_","_","_","_","_","_"],[".",".",".",9,".","_",".",6,".","_","_","_","_","_","_","_","_","_","_","_","_","_","_","_","_","_","_","_","_"],[".",9,".",".",9,"_",".",".",".","_","_","_","_","_","_","_","_","_","_","_","_","_","_","_","_","_","_","_","_"],[7,".",".",".",".","_",".",".",".","_","_","_","_","_","_","_","_","_","_","_","_","_","_","_","_","_","_","_","_"]]],"numberofstrings":6,"notes":["E","B","G","D","A","E","B"],"capo":0,"stringnotes":["E4","B3","G3","D3","A2","E2"],"comments":["Stave 1:","Stave 2:"],"timing":[["W","W","W","W","W",null,"W","W","W",null,"W","W","W","W","W","W","W","W","W",null,"W","W","W","W","W",null,"W","W","W"],["W","W","W","W","W",null,"W","W","W"]],"timingvisible":false,"tabcounter":29,"stave":1,"totalstaves":2,"instrument":"6guitar","selectedtuning":"6_standard","version":"13"}

Member for

9 months
Submitted by benjamingrey7 on Fri, 2021-03-05 06:17