Black Magic Woman - Peter Green

Chords

01234567891011121314151617181920212223
E
B
G
D
A
E
B
0 1 2 3 4 5 6 7 8 9 10 11 12 13 14 15 16 17 18 19 20 21 22 23
(/) Slide Up  (\) Slide Down  (h) Hammer On  (p) Pull Off  (b) Bend (r) Release (v) Vibrato

Stave 1:

E|--------------------------------------------------------------------------------------------------------------------------------------
B|--------------------------------------------------------------------------------------------------------------------------------------
G|-------------------------------10/12b14--12--10--10--12v------------------------------------------------------------------------------
D|---------10/12---------------------------------------------------------10-------------------10/12---------------10--12----------------
A|--10/12---------12\10\8-----------------------------------------10/12------12\10\8--10-------------------10/12----------10--12--------
E|----------------------------------------------------------------------------------------10--------------------------------------------

Stave 2:

E|------------------------10--13v--------------------------------------------15b15--13------------13--10----------
B|------10/13---------11-----------------15------15------13------13--15--15-------------15----------------13--10--
G|--10---------10/12-------------------------14------14------14---------------------------------------------------
D|----------------------------------------------------------------------------------------------------------------
A|----------------------------------------------------------------------------------------------------------------
E|----------------------------------------------------------------------------------------------------------------

Stave 3:

E|--13b15--13b15--13b14--13--10-----------------------------------------------------------------------------------10/13--
B|-------------------------------10--13b15--13b15v--------13--10----------------------------------------------11---------
G|----------------------------------------------------------------10--12b14--12--10------10--12--------10/12-------------
D|-----------------------------------------------------------------------------------12----------------------------------
A|-----------------------------------------------------------------------------------------------------------------------
E|-----------------------------------------------------------------------------------------------------------------------

Stave 4:

E|--13b13r---13b13r--------------------------------------------------------------------------------------------------------------------
B|-----------------18---------------------------10--13b---------13--10-----------------------12----------------------------------------
G|---------------------12v--------10------12b12r------------------------12b13-----12p10--12---------------10h12--10--------------------
D|------------------------------------12-----------------------------------------------------------------------------12----------------
A|-----------------------------------------------------------------------------------------------------------------------12/10--8--10--
E|-------------------------------------------------------------------------------------------------------------------------------------

Stave 5:

E|--15b17--15------13/15--13------15b17r15v-----------13--10----------10--8--------------------------10--13----------
B|-------------15-------------15------------------------------13--10---------10--8-----------10--13----------10--13--
G|-------------------------------------------------------------------------------------------------------------------
D|-------------------------------------------------------------------------------------------------------------------
A|-------------------------------------------------------------------------------------------------------------------
E|-------------------------------------------------------------------------------------------------------------------

Stave 6:

E|--10---------------------------------------------------------------------------------------------------------------------------------------
B|------10------------------------------------------------------------------10--13p10--------------------------------10----------------------
G|----------12--12b13-----12--10------10-----------12b14-----12b13--10--12-------------12--10------10--------10--12------10--12--10------10--
D|--------------------------------12-----------------------------------------------------------12------------------------------------12------
A|-------------------------------------------------------------------------------------------------------------------------------------------
E|-------------------------------------------------------------------------------------------------------------------------------------------

Stave 7:

E|--13b15--13v-------------10---------------------------------------------------------------------------------------------------------------
B|--------------10--13b15------10--12b13r12-------------------13----------------------------------------------------------------------------
G|-------------------------------------------13b14r13p10--12------10--12--------------------------------------------------------------------
D|-----------------------------------------------------------------------------------------10--12-------------------------------10--12------
A|---------------------------------------------------------------------------------10--12----------12\10--8-------------10--12----------12--
E|-----------------------------------------------------------------------------------------------------------10v----------------------------

Stave 8:

E|---------------------13b15r13--10---------------------------------------------------------------------------------------------------------
B|----------10--13-------------------10---------------------------------------------------------------------------------13/15v--------------
G|------10-------------------------------12v----------------------------------------------10--12b13r12p10--12-------------------------------
D|--10-------------------------------------------------10/12--------------------------------------------------------------------------------
A|------------------------------------------------------------12\10--10--12-----------------------------------------------------------------
E|---------------------------------------------------------------------------12-------------------------------------------------------------

Stave 9:

E|--15b17r15--13------13-----------13b15r13--10-------------------------------------10--13--------------------------------------
B|----------------15-----------------------------13--10-------------------------13----------13/15v------------------------------
G|-------------------------------------------------------12b13r12---------------------------------------------------------------
D|-----------------------------------------------------------------12----------------------------------------------------3--5b6r
A|--------------------------------------------------------------------------------------------------------3h5--3h5--3h5---------
E|------------------------------------------------------------------------------------------------------------------------------

Stave 10:

E|---------------------------------------------------------------------------------------------------10--13b---
B|----------10---------12b13--12-----------------------------------------------10--10/13---------11------------
G|------10------12b13-------------12p10---------------------------------------------------10/12----------------
D|--12---------------------------------------------------10--12------------------------------------------------
A|---------------------------------------------8--10/12----------10--12----------------------------------------
E|-------------------------------------------------------------------------------------------------------------

							http://www.guitartabcreator.com
Tab Notes
Licks by Peter Green
genre
Instruments
{"strings":[[[".",".",".",".",".",".",".",".",".",".",".","_","_",".",".",".",".",".",".",".",".",".",".","_","_",".",".",".",".",".",".",".",".",".",".",".",".",".",".","_","_",".",".",".",".",".",".",".","_","_"],[".",".",".",".",".",".",".",".",".",".",".","_","_",".",".",".",".",".",".",".",".",".",".","_","_",".",".",".",".",".",".",".",".",".",".",".",".",".",".","_","_",".",".",".",".",".",".",".","_","_"],[".",".",".",".",".",".",".",".",".",".",".","_","_",10,"/",12,"b",14,12,10,10,12,"v","_","_",".",".",".",".",".",".",".",".",".",".",".",".",".",".","_","_",".",".",".",".",".",".",".","_","_"],[".",".",".",10,"/",12,".",".",".",".",".","_","_",".",".",".",".",".",".",".",".",".",".","_","_",".",".",".",10,".",".",".",".",".",".",".",10,"/",12,"_","_",".",".",".",10,12,".",".","_","_"],[10,"/",12,".",".",".",12,"\\",10,"\\",8,"_","_",".",".",".",".",".",".",".",".",".",".","_","_",10,"/",12,".",12,"\\",10,"\\",8,10,".",".",".",".","_","_",10,"/",12,".",".",10,12,"_","_"],[".",".",".",".",".",".",".",".",".",".",".","_","_",".",".",".",".",".",".",".",".",".",".","_","_",".",".",".",".",".",".",".",".",".",".",10,".",".",".","_","_",".",".",".",".",".",".",".","_","_"]],[[".",".",10,".",".",".",".",".",10,13,"v","_","_",".",".",".",".",".",".",".",".",".",15,"b",15,13,".","_","_",13,10,".","."],[".",10,"/",13,".",".",".",11,".",".",".","_","_",15,".",15,".",13,".",13,15,15,".",".",".",".",15,"_","_",".",".",13,10],[10,".",".",".",10,"/",12,".",".",".",".","_","_",".",14,".",14,".",14,".",".",".",".",".",".",".",".","_","_",".",".",".","."],[".",".",".",".",".",".",".",".",".",".",".","_","_",".",".",".",".",".",".",".",".",".",".",".",".",".",".","_","_",".",".",".","."],[".",".",".",".",".",".",".",".",".",".",".","_","_",".",".",".",".",".",".",".",".",".",".",".",".",".",".","_","_",".",".",".","."],[".",".",".",".",".",".",".",".",".",".",".","_","_",".",".",".",".",".",".",".",".",".",".",".",".",".",".","_","_",".",".",".","."]],[[13,"b",15,13,"b",15,13,"b",14,13,10,".",".",".",".",".",".",".",".","_","_",".",".",".",".",".",".",".",".",".",".",".","_","_",".",".",".",".",10,"/",13],[".",".",".",".",".",".",".",".",".",".",".",10,13,"b",15,13,"b",15,"v","_","_",13,10,".",".",".",".",".",".",".",".",".","_","_",".",".",".",11,".",".","."],[".",".",".",".",".",".",".",".",".",".",".",".",".",".",".",".",".",".",".","_","_",".",".",10,12,"b",14,12,10,".",10,12,"_","_",10,"/",12,".",".",".","."],[".",".",".",".",".",".",".",".",".",".",".",".",".",".",".",".",".",".",".","_","_",".",".",".",".",".",".",".",".",12,".",".","_","_",".",".",".",".",".",".","."],[".",".",".",".",".",".",".",".",".",".",".",".",".",".",".",".",".",".",".","_","_",".",".",".",".",".",".",".",".",".",".",".","_","_",".",".",".",".",".",".","."],[".",".",".",".",".",".",".",".",".",".",".",".",".",".",".",".",".",".",".","_","_",".",".",".",".",".",".",".",".",".",".",".","_","_",".",".",".",".",".",".","."]],[[13,"b",13,"r","_",13,"b",13,"r",".",".",".","_","_",".",".",".",".",".",".",".",".",".","_","_","_",".",".",".",".",".","_",".",".",".",".",".","_","_","_",".",".",".",".",".",".",".",".",".","."],[".",".",".",".","_",".",".",".",".",18,".",".","_","_",".",".",".",".",".",".",10,13,"b","_","_","_",13,10,".",".",".","_",".",".",".",".",12,"_","_","_",".",".",".",".",".",".",".",".",".","."],[".",".",".",".","_",".",".",".",".",".",12,"v","_","_",10,".",12,"b",12,"r",".",".",".","_","_","_",".",".",12,"b",13,"_",12,"p",10,12,".","_","_","_",10,"h",12,10,".",".",".",".",".","."],[".",".",".",".","_",".",".",".",".",".",".",".","_","_",".",12,".",".",".",".",".",".",".","_","_","_",".",".",".",".",".","_",".",".",".",".",".","_","_","_",".",".",".",".",12,".",".",".",".","."],[".",".",".",".","_",".",".",".",".",".",".",".","_","_",".",".",".",".",".",".",".",".",".","_","_","_",".",".",".",".",".","_",".",".",".",".",".","_","_","_",".",".",".",".",".",12,"/",10,8,10],[".",".",".",".","_",".",".",".",".",".",".",".","_","_",".",".",".",".",".",".",".",".",".","_","_","_",".",".",".",".",".","_",".",".",".",".",".","_","_","_",".",".",".",".",".",".",".",".",".","."]],[[15,"b",17,15,".",13,"/",15,13,".",15,"b",17,"r",15,"v","_","_","_",13,10,".",".",10,8,".",".","_","_","_",".",".",10,13,".","."],[".",".",".",".",15,".",".",".",".",15,".",".",".",".",".",".","_","_","_",".",".",13,10,".",".",10,8,"_","_","_",10,13,".",".",10,13],[".",".",".",".",".",".",".",".",".",".",".",".",".",".",".",".","_","_","_",".",".",".",".",".",".",".",".","_","_","_",".",".",".",".",".","."],[".",".",".",".",".",".",".",".",".",".",".",".",".",".",".",".","_","_","_",".",".",".",".",".",".",".",".","_","_","_",".",".",".",".",".","."],[".",".",".",".",".",".",".",".",".",".",".",".",".",".",".",".","_","_","_",".",".",".",".",".",".",".",".","_","_","_",".",".",".",".",".","."],[".",".",".",".",".",".",".",".",".",".",".",".",".",".",".",".","_","_","_",".",".",".",".",".",".",".",".","_","_","_",".",".",".",".",".","."]],[[10,".",".",".",".",".","_",".",".",".",".","_","_","_",".",".",".","_",".",".",".",".",".",".",".",".",".",".",".",".",".","_","_",".",".",".",".",".",".",".","."],[".",10,".",".",".",".","_",".",".",".",".","_","_","_",".",".",".","_",".",".",".",".",".",10,13,"p",10,".",".",".",".","_","_",".",".",10,".",".",".",".","."],[".",".",12,12,"b",13,"_",12,10,".",10,"_","_","_",12,"b",14,"_",12,"b",13,10,12,".",".",".",".",12,10,".",10,"_","_",10,12,".",10,12,10,".",10],[".",".",".",".",".",".","_",".",".",12,".","_","_","_",".",".",".","_",".",".",".",".",".",".",".",".",".",".",".",12,".","_","_",".",".",".",".",".",".",12,"."],[".",".",".",".",".",".","_",".",".",".",".","_","_","_",".",".",".","_",".",".",".",".",".",".",".",".",".",".",".",".",".","_","_",".",".",".",".",".",".",".","."],[".",".",".",".",".",".","_",".",".",".",".","_","_","_",".",".",".","_",".",".",".",".",".",".",".",".",".",".",".",".",".","_","_",".",".",".",".",".",".",".","."]],[[13,"b",15,13,"v",".",".",".",".",10,".",".",".",".",".",".",".",".",".",".",".",".",".",".",".",".",".","_","_","_",".",".",".",".",".",".",".",".",".",".","_","_",".",".",".",".","."],[".",".",".",".",".",10,13,"b",15,".",10,12,"b",13,"r",12,".",".",".",".",".",".",".",".",13,".",".","_","_","_",".",".",".",".",".",".",".",".",".",".","_","_",".",".",".",".","."],[".",".",".",".",".",".",".",".",".",".",".",".",".",".",".",".",13,"b",14,"r",13,"p",10,12,".",10,12,"_","_","_",".",".",".",".",".",".",".",".",".",".","_","_",".",".",".",".","."],[".",".",".",".",".",".",".",".",".",".",".",".",".",".",".",".",".",".",".",".",".",".",".",".",".",".",".","_","_","_",".",".",10,12,".",".",".",".",".",".","_","_",".",".",10,12,"."],[".",".",".",".",".",".",".",".",".",".",".",".",".",".",".",".",".",".",".",".",".",".",".",".",".",".",".","_","_","_",10,12,".",".",12,"\\",10,8,".",".","_","_",10,12,".",".",12],[".",".",".",".",".",".",".",".",".",".",".",".",".",".",".",".",".",".",".",".",".",".",".",".",".",".",".","_","_","_",".",".",".",".",".",".",".",".",10,"v","_","_",".",".",".",".","."]],[[".",".",".",".","_",13,"b",15,"r",13,10,".",".",".","_","_","_",".",".",".",".",".",".",".",".",".","_","_","_",".",".",".",".",".",".",".",".",".","_","_","_",".",".",".",".","_","_","_","_"],[".",".",10,13,"_",".",".",".",".",".",".",10,".",".","_","_","_",".",".",".",".",".",".",".",".",".","_","_","_",".",".",".",".",".",".",".",".",".","_","_","_",13,"/",15,"v","_","_","_","_"],[".",10,".",".","_",".",".",".",".",".",".",".",12,"v","_","_","_",".",".",".",".",".",".",".",".",".","_","_","_",10,12,"b",13,"r",12,"p",10,12,"_","_","_",".",".",".",".","_","_","_","_"],[10,".",".",".","_",".",".",".",".",".",".",".",".",".","_","_","_",10,"/",12,".",".",".",".",".",".","_","_","_",".",".",".",".",".",".",".",".",".","_","_","_",".",".",".",".","_","_","_","_"],[".",".",".",".","_",".",".",".",".",".",".",".",".",".","_","_","_",".",".",".",12,"\\",10,10,12,".","_","_","_",".",".",".",".",".",".",".",".",".","_","_","_",".",".",".",".","_","_","_","_"],[".",".",".",".","_",".",".",".",".",".",".",".",".",".","_","_","_",".",".",".",".",".",".",".",".",12,"_","_","_",".",".",".",".",".",".",".",".",".","_","_","_",".",".",".",".","_","_","_","_"]],[[15,"b",17,"r",15,13,".",13,"_","_","_",13,"b",15,"r",13,10,".",".",".",".",".",".",".",".","_","_","_",".",10,13,".",".",".",".","_","_",".",".",".",".",".",".",".",".",".",".",".",".",".","."],[".",".",".",".",".",".",15,".","_","_","_",".",".",".",".",".",".",13,10,".",".",".",".",".",".","_","_","_",13,".",".",13,"/",15,"v","_","_",".",".",".",".",".",".",".",".",".",".",".",".",".","."],[".",".",".",".",".",".",".",".","_","_","_",".",".",".",".",".",".",".",".",12,"b",13,"r",12,".","_","_","_",".",".",".",".",".",".",".","_","_",".",".",".",".",".",".",".",".",".",".",".",".",".","."],[".",".",".",".",".",".",".",".","_","_","_",".",".",".",".",".",".",".",".",".",".",".",".",".",12,"_","_","_",".",".",".",".",".",".",".","_","_",".",".",".",".",".",".",".",".",".",3,5,"b",6,"r"],[".",".",".",".",".",".",".",".","_","_","_",".",".",".",".",".",".",".",".",".",".",".",".",".",".","_","_","_",".",".",".",".",".",".",".","_","_",3,"h",5,3,"h",5,3,"h",5,".",".",".",".","."],[".",".",".",".",".",".",".",".","_","_","_",".",".",".",".",".",".",".",".",".",".",".",".",".",".","_","_","_",".",".",".",".",".",".",".","_","_",".",".",".",".",".",".",".",".",".",".",".",".",".","."]],[[".",".",".",".",".",".",".",".",".",".",".",".",".","_","_",".",".",".",".",".",".",".",".","_","_",".",".",".",".",".",".",".",".",10,13,"b","_"],[".",".",10,".",".",".",12,"b",13,12,".",".",".","_","_",".",".",".",".",".",".",".",".","_","_",10,10,"/",13,".",".",".",11,".",".",".","_"],[".",10,".",12,"b",13,".",".",".",".",12,"p",10,"_","_",".",".",".",".",".",".",".",".","_","_",".",".",".",".",10,"/",12,".",".",".",".","_"],[12,".",".",".",".",".",".",".",".",".",".",".",".","_","_",".",".",".",".",10,12,".",".","_","_",".",".",".",".",".",".",".",".",".",".",".","_"],[".",".",".",".",".",".",".",".",".",".",".",".",".","_","_",8,10,"/",12,".",".",10,12,"_","_",".",".",".",".",".",".",".",".",".",".",".","_"],[".",".",".",".",".",".",".",".",".",".",".",".",".","_","_",".",".",".",".",".",".",".",".","_","_",".",".",".",".",".",".",".",".",".",".",".","_"]]],"numberofstrings":6,"notes":["E","B","G","D","A","E","B"],"capo":0,"stringnotes":["E4","B3","G3","D3","A2","E2"],"comments":["Stave 1:","Stave 2:","Stave 3:","Stave 4:","Stave 5:","Stave 6:","Stave 7:","Stave 8:","Stave 9:","Stave 10:"],"timing":[["W",null,"W","W",null,"W","W",null,"W",null,"W",null,null,"W",null,"W",null,"W","W","W","W","W",null,null,null,"W",null,"W","W","W",null,"W",null,"W","W","W","W",null,"W",null,null,"W",null,"W","W","W","W","W",null,null,"W"],["W","W","W","W","W",null,"W","W","W","W",null,"W",null,"W","W","W","W","W","W","W","W","W","W",null,"W","W","W",null,null,"W","W","W","W"],["W",null,"W","W",null,"W","W",null,"W","W","W","W","W",null,"W","W",null,"W",null,null,null,"W","W","W","W",null,"W","W","W","W","W","W",null,null,"W",null,"W","W","W",null,"W"],["W",null,"W",null,"W","W",null,"W",null,"W","W","W",null,null,"W","W","W","W","W",null,"W","W","W",null,null,null,"W","W","W",null,"W",null,"W",null,"W","W","W",null,null,null,"W",null,"W","W","W","W",null,"W","W","W"],["W",null,"W","W","W","W",null,"W","W","W","W",null,"W",null,"W",null,null,null,null,"W","W","W","W","W","W","W","W",null,null,null,"W","W","W","W","W","W"],["W","W","W","W",null,"W",null,"W","W","W","W",null,null,null,"W",null,"W",null,"W",null,"W","W","W","W","W",null,"W","W","W","W","W",null,null,"W","W","W","W","W","W","W","W"],["W",null,"W","W",null,"W","W",null,"W","W","W","W",null,"W",null,"W","W",null,"W",null,"W",null,"W","W","W","W","W",null,null,null,"W","W","W","W","W",null,"W","W","W",null,null,null,"W","W","W","W","W"],["W","W","W","W",null,"W",null,"W",null,"W","W","W","W",null,null,null,null,"W","W","W","W",null,"W","W","W","W",null,null,null,"W","W",null,"W",null,"W",null,"W","W",null,null,null,"W",null,"W"],["W",null,"W",null,"W","W","W","W",null,null,null,"W",null,"W",null,"W","W","W","W","W",null,"W",null,"W","W",null,null,null,"W","W","W","W",null,"W",null,null,null,"W","W","W","W","W","W","W","W","W","W","W","W","W","W"],["W","W","W","W",null,"W","W",null,"W","W","W",null,"W",null,null,"W","W",null,"W","W","W","W","W",null,null,"W","W",null,"W","W",null,"W","W","W","W"]],"timingvisible":false,"tabcounter":37,"stave":9,"totalstaves":10,"instrument":"6guitar","selectedtuning":"6_standard","version":"13"}

Member for

3 months
About Me
Finally retired so learning to play guitar
Submitted by Bendup on Mon, 2020-08-31 11:23