Sound will begin in 5 seconds

21 Pilots

Chords
01234567891011121314151617181920212223
E
B
G
D
A
E
B
0 1 2 3 4 5 6 7 8 9 10 11 12 13 14 15 16 17 18 19 20 21 22 23
Song Science #1: How Pros Use 6 Chords to Write Hit Songs
(/) Slide Up  (\) Slide Down  (h) Hammer On  (p) Pull Off  (b) Bend (r) Release (v) Vibrato

Stave 1:

G|----------------------------------------------------------------9--7------9--7------9--9-----9--7------9--7------9--9-----
D|--9--10--9------9--10--9---------9--10--9------9--10--9---------------10--------10-----------------10--------10-----------
A|------------10------------10--7------------10------------10--7----------------------------7----------------------------7--
E|--------------------------------------------------------------------------------------------------------------------------

Stave 2:

G|--------------------------------------------------------------
D|--------------------------------------2-----2--------2-----2--
A|--3-----2--------3-----2--------3--------2-----3--------2-----
E|-----5-----3--0-----5-----3--0-----5--------------5-----------

Stave 3:

G|--------------
D|--7-----7-----
A|--0--7--0--7--
E|-----0-----0--

Stave 4:

G|---------------------------------------
D|---------10--7------------10--7-----9--
A|----------------7----------------------
E|--10--8------5--0--10--8------5--3--7--

Stave 5:

G|--------------
D|--7-----7-----
A|--0--7--0--7--
E|-----0-----0--

http://www.guitartabcreator.com
Guitar Tab Creator is intended to store guitar tab created through the tool. It currently does not support in-line text editing. Any text you place in here will be lost. If you need to comment on your tab, please use the "Tab Notes" section located below.