Artist in the Ambulance-Thrice

01234567891011121314151617181920212223
E
B
G
D
A
E
B
0 1 2 3 4 5 6 7 8 9 10 11 12 13 14 15 16 17 18 19 20 21 22 23
(/) Slide Up  (\) Slide Down  (h) Hammer On  (p) Pull Off  (b) Bend (r) Release (v) Vibrato

Stave 1:

D|--------------------------------------------------------------------------------------------------------------------------------------
A|--11--15--------------15------15--15------13--15----------------11--15--------------15------15--16--15--15h16p15--13--15--11--13--13--
F|----------12--15--12------12----------12----------15p0--14--15----------12--15--12------12--------------------------------------------
C|--------------------------------------------------------------------------------------------------------------------------------------
G|--------------------------------------------------------------------------------------------------------------------------------------
C|--------------------------------------------------------------------------------------------------------------------------------------

Stave 2:

D|----------13-------------------------------------------------------------------------------------------------------------
A|--15--11------11--15--11--15--13--15--11--13--11--15--13--11--16--15--16--15--13--13\11--15------------------------------
F|---------------------------------------------------------------------------------------------14--15--17--19--15--14--15--
C|-------------------------------------------------------------------------------------------------------------------------
G|-------------------------------------------------------------------------------------------------------------------------
C|-------------------------------------------------------------------------------------------------------------------------

							http://www.guitartabcreator.com
Chords

Tab Notes
Artist in the Ambulance by Thrice
Instruments
{"strings":[[[".",".",".",".",".",".",".",".",".",".",".",".",".",".",".",".",".",".",".",".",".",".",".",".",".",".",".",".",".",".",".",".",".",".",".",".","."],[11,15,".",".",".",15,".",15,15,".",13,15,".",".",".",".",".",11,15,".",".",".",15,".",15,16,15,15,"h",16,"p",15,13,15,11,13,13],[".",".",12,15,12,".",12,".",".",12,".",".",15,"p",0,14,15,".",".",12,15,12,".",12,".",".",".",".",".",".",".",".",".",".",".",".","."],[".",".",".",".",".",".",".",".",".",".",".",".",".",".",".",".",".",".",".",".",".",".",".",".",".",".",".",".",".",".",".",".",".",".",".",".","."],[".",".",".",".",".",".",".",".",".",".",".",".",".",".",".",".",".",".",".",".",".",".",".",".",".",".",".",".",".",".",".",".",".",".",".",".","."],[".",".",".",".",".",".",".",".",".",".",".",".",".",".",".",".",".",".",".",".",".",".",".",".",".",".",".",".",".",".",".",".",".",".",".",".","."]],[[".",".",13,".",".",".",".",".",".",".",".",".",".",".",".",".",".",".",".",".",".",".",".",".",".",".",".",".",".",".","."],[15,11,".",11,15,11,15,13,15,11,13,11,15,13,11,16,15,16,15,13,13,"\\",11,15,".",".",".",".",".",".","."],[".",".",".",".",".",".",".",".",".",".",".",".",".",".",".",".",".",".",".",".",".",".",".",".",14,15,17,19,15,14,15],[".",".",".",".",".",".",".",".",".",".",".",".",".",".",".",".",".",".",".",".",".",".",".",".",".",".",".",".",".",".","."],[".",".",".",".",".",".",".",".",".",".",".",".",".",".",".",".",".",".",".",".",".",".",".",".",".",".",".",".",".",".","."],[".",".",".",".",".",".",".",".",".",".",".",".",".",".",".",".",".",".",".",".",".",".",".",".",".",".",".",".",".",".","."]]],"numberofstrings":6,"notes":["D","A","F","C","G","C"],"capo":0,"stringnotes":["D3","A2","F2","C2","G1","C1"],"comments":["Stave 1:","Stave 2:"],"timing":[["W","W","W","W","W","W","W","W","W","W","W","W","W",null,"W","W","W","W","W","W","W","W","W","W","W","W","W","W",null,"W",null,"W","W","W","W","W","W"],["W","W","W","W","W","W","W","W","W","W","W","W","W","W","W","W","W","W","W","W","W",null,"W","W","W","W","W","W","W","W","W"]],"timingvisible":false,"tabcounter":31,"stave":1,"totalstaves":2,"instrument":"6guitar","selectedtuning":"Drop C","version":"13"}

Member for

1 month 3 weeks
Submitted by ben.collins on Fri, 2021-02-26 11:16