Sound will begin in 5 seconds

Off To The Races

01234567891011121314151617181920212223
E
B
G
D
A
E
B
0 1 2 3 4 5 6 7 8 9 10 11 12 13 14 15 16 17 18 19 20 21 22 23
(/) Slide Up  (\) Slide Down  (h) Hammer On  (p) Pull Off  (b) Bend (r) Release (v) Vibrato

Stave 1:

E|-----------------------------------------------------------------------------
B|-----------------------------------------------------------------------------
G|--7-----7--9--------7-----7--9--------7-----7--9--------7--------------------
D|-----9--------7--9-----9--------7--9-----9--------7--9-----9--7--5--7--5-----
A|--------------------------------------------------------------------------7--
E|-----------------------------------------------------------------------------

Stave 2:

E|-------------------------------------------------------------------------
B|-------------------------------------------------------------------------
G|--7-----7--9--------7-----7--9--9--7--9b11r9--7--------7-----------------
D|-----9--------7--9-----9-------------------------7--9-----9--7--5--7--7--
A|-------------------------------------------------------------------------
E|-------------------------------------------------------------------------

Stave 3:

E|------------------------------12b15r12--
B|--10b12r10--8--7--8--7------------------
G|------------------------9--7------------
D|----------------------------------------
A|----------------------------------------
E|----------------------------------------

Stave 4:

E|--7--10--7------------------------------------------
B|------------10--7--8--7-----------------------------
G|-------------------------9--7-----------------------
D|-------------------------------9--7--5--4--5--4-----
A|-------------------------------------------------5--
E|----------------------------------------------------

Stave 5:

E|-----------------------------------------
B|-----------------------------------------
G|-----------------------7--9--7--9--7--9--
D|--------5--7--5--7--9--------------------
A|--5--7-----------------------------------
E|-----------------------------------------

Stave 6:

E|-----------------------------------------------------------------------------------------------------
B|-------------------------------------------------------------------15--17--15--17--17b19r17--15--17--
G|------12--14--14b16--16--16--16r14--14--12--14b16--14--12--14--16------------------------------------
D|--14-------------------------------------------------------------------------------------------------
A|-----------------------------------------------------------------------------------------------------
E|-----------------------------------------------------------------------------------------------------

Stave 7:

E|------17--19--19b21--21--21--21--21--21--21--21--21r19--17--19--19--17--19--17--19b21--19--17--19--
B|--19-----------------------------------------------------------------------------------------------
G|---------------------------------------------------------------------------------------------------
D|---------------------------------------------------------------------------------------------------
A|---------------------------------------------------------------------------------------------------
E|---------------------------------------------------------------------------------------------------

Stave 8:

E|--12--10------12--10------12--10------12--10------14--10------14--10------14--10------14--10------
B|----------12----------12----------12----------12----------12----------12----------12----------12--
G|--------------------------------------------------------------------------------------------------
D|--------------------------------------------------------------------------------------------------
A|--------------------------------------------------------------------------------------------------
E|--------------------------------------------------------------------------------------------------

Stave 9:

E|--15--10------15--10------15--10------15--10------14--10------14--10------14--10--
B|----------12----------12----------12----------12----------12----------12----------
G|----------------------------------------------------------------------------------
D|----------------------------------------------------------------------------------
A|----------------------------------------------------------------------------------
E|----------------------------------------------------------------------------------

http://www.guitartabcreator.com
Guitar Tab Creator is intended to store guitar tab created through the tool. It currently does not support in-line text editing. Any text you place in here will be lost. If you need to comment on your tab, please use the "Tab Notes" section located below.