Sound will begin in 5 seconds

Move on

Chords
01234567891011121314151617181920212223
E
B
G
D
A
E
B
0 1 2 3 4 5 6 7 8 9 10 11 12 13 14 15 16 17 18 19 20 21 22 23
Song Science #1: How Pros Use 6 Chords to Write Hit Songs
(/) Slide Up  (\) Slide Down  (h) Hammer On  (p) Pull Off  (b) Bend (r) Release (v) Vibrato

Stave 1:

E|---------------------12-----------------5----
B|------------------12------------------5------
G|----------12-7-12----------------12-7--------
D|-------12---------------------12-------------
A|----12---------------------12----------------
E|-12---------------------12-------------------

Stave 2:

E|---------------------------------------------------------------------
B|---------------------------------------------------------------------
G|------------------------------------------------------------7/9-5----
D|-------7-5---5-7-------7-5---5----------7-5---5-7-------7-5----------
A|-----------7---------------7----------------7------------------------
E|-0-5-7-----------0-5-7------------0-5-7-----------0-5-7--------------

Stave 3:

E|---------------------------------------------------------------------
B|---------------------------------------------------------------------
G|---------------------------------------------------------------------
D|-------7-7-5-7-7-------7-7-5-7----------7-7-5-7-7-------7-7-12-10----
A|-------7-7-5-7-7-------7-7-5-7----------7-7-5-7-7-------7-7-12-10----
E|-0-5-7-5-5---5-5-0-5-7-5-5---5----0-5-7-5-5---5-5-0-5-7-5-5-10-8-----

Stave 4:

E|-------------------------------------------------------------------------------
B|-------------------------------------------------------------------------------
G|-------------------------------------------------------------------------------
D|-------7-7-9-10-10-10-9-10-10-10-9-7-7-------7-7-9-10-10-10-9-10-10-10-12-10-9-
A|-------7-7-9-10-10-10-9-10-10-10-9-7-7-------7-7-9-10-10-10-9-10-10-10-12-10-9-
E|-0-5-7-5-5-7-8--8--8--7-8--8--8--7-5-5-0-5-7-5-5-7-8--8--8--7-8--8--8--10-8--7-

Stave 5:

E|-----------------------------------------------------------------------
B|-----------------------------------------------------------------------
G|-----------------------------------------------------------------------
D|-7----7-7-7----7-7-7----7-7-9----10----10-10-10----10-10-10----10-10-9-
A|-7----7-7-7----7-7-7----7-7-9----10----10-10-10----10-10-10----10-10-9-
E|-5----5-5-5----5-5-5----5-5-7----8-----8--8--8-----8--8--8-----8--8--7-

Stave 6:

E|----------------------------------------------------------------------
B|----------------------------------------------------------------------
G|----------------------------------------------------------------------
D|-7----7-7-7----7-7-7----7-7-5----4----4----4----4----2----2----2----2-
A|-7----7-7-7----7-7-7----7-7-5----4----4----4----4----2----2----2----2-
E|-5----5-5-5----5-5-5----5-5-3----2----2----2----2----0----0----0----0-

http://www.guitartabcreator.com
Guitar Tab Creator is intended to store guitar tab created through the tool. It currently does not support in-line text editing. Any text you place in here will be lost. If you need to comment on your tab, please use the "Tab Notes" section located below.