Demons Solo

01234567891011121314151617181920212223
E
B
G
D
A
E
B
0 1 2 3 4 5 6 7 8 9 10 11 12 13 14 15 16 17 18 19 20 21 22 23
(/) Slide Up  (\) Slide Down  (h) Hammer On  (p) Pull Off  (b) Bend (r) Release (v) Vibrato

Stave 1:

E|--------------------------------------------------------
B|--10v--8v--5v--5v--8v--10v--10v--8v--5v--5v--8v--10--10b
G|--------------------------------------------------------
D|--------------------------------------------------------
A|--------------------------------------------------------
E|--------------------------------------------------------

Stave 2:

E|--------------------------
B|----2---------------------
G|--4b---4b2-----4b2-----2--
D|--------------------4-----
A|--------------------------
E|--------------------------

Stave 3:

E|-----------------------------------------------------------------------------------------------------
B|--2--2--2--3--3--3--2--2--2--3--3--3--5--5--5--3--3--3--5--5--5--7--7--7--5--5--5--7--7--7--8--8--8--
G|-----------------------------------------------------------------------------------------------------
D|-----------------------------------------------------------------------------------------------------
A|-----------------------------------------------------------------------------------------------------
E|-----------------------------------------------------------------------------------------------------

Stave 4:

E|---------------------------------------------------------12-
B|--7--7--7--8--8--8--10--10--10--8--8--8--10--10--10--12--12b
G|------------------------------------------------------------
D|------------------------------------------------------------
A|------------------------------------------------------------
E|------------------------------------------------------------

Stave 5:

E|-----12-12-
B|-----12b12b
G|-----------
D|-----------
A|-----------
E|-----------

Stave 6:

E|--14b
B|-----
G|-----
D|-----
A|-----
E|-----

							http://www.guitartabcreator.com
Chords

Instruments
{"strings":[[[".",".",".",".",".",".",".",".",".",".",".",".",".",".",".",".",".",".",".",".",".",".",".",".","."],[10,"v",8,"v",5,"v",5,"v",8,"v",10,"v",10,"v",8,"v",5,"v",5,"v",8,"v",10,10,"b"],[".",".",".",".",".",".",".",".",".",".",".",".",".",".",".",".",".",".",".",".",".",".",".",".","."],[".",".",".",".",".",".",".",".",".",".",".",".",".",".",".",".",".",".",".",".",".",".",".",".","."],[".",".",".",".",".",".",".",".",".",".",".",".",".",".",".",".",".",".",".",".",".",".",".",".","."],[".",".",".",".",".",".",".",".",".",".",".",".",".",".",".",".",".",".",".",".",".",".",".",".","."]],[[".",".",".",".",".",".","_",".",".",".",".","."],[".",".",2,".",".",".","_",".",".",".",".","."],[4,"b",".",4,"b",2,"_",4,"b",2,".",2],[".",".",".",".",".",".","_",".",".",".",4,"."],[".",".",".",".",".",".","_",".",".",".",".","."],[".",".",".",".",".",".","_",".",".",".",".","."]],[[".",".",".",".",".",".",".",".",".",".",".",".",".",".",".",".",".",".",".",".",".",".",".",".",".",".",".",".",".",".",".",".","."],[2,2,2,3,3,3,2,2,2,3,3,3,5,5,5,3,3,3,5,5,5,7,7,7,5,5,5,7,7,7,8,8,8],[".",".",".",".",".",".",".",".",".",".",".",".",".",".",".",".",".",".",".",".",".",".",".",".",".",".",".",".",".",".",".",".","."],[".",".",".",".",".",".",".",".",".",".",".",".",".",".",".",".",".",".",".",".",".",".",".",".",".",".",".",".",".",".",".",".","."],[".",".",".",".",".",".",".",".",".",".",".",".",".",".",".",".",".",".",".",".",".",".",".",".",".",".",".",".",".",".",".",".","."],[".",".",".",".",".",".",".",".",".",".",".",".",".",".",".",".",".",".",".",".",".",".",".",".",".",".",".",".",".",".",".",".","."]],[[".",".",".",".",".",".",".",".",".",".",".",".",".",".",".",".",12,"."],[7,7,7,8,8,8,10,10,10,8,8,8,10,10,10,12,12,"b"],[".",".",".",".",".",".",".",".",".",".",".",".",".",".",".",".",".","."],[".",".",".",".",".",".",".",".",".",".",".",".",".",".",".",".",".","."],[".",".",".",".",".",".",".",".",".",".",".",".",".",".",".",".",".","."],[".",".",".",".",".",".",".",".",".",".",".",".",".",".",".",".",".","."]],[[".",12,".",12,"."],[".",12,"b",12,"b"],[".",".",".",".","."],[".",".",".",".","."],[".",".",".",".","."],[".",".",".",".","."]],[[14,"b"],[".","."],[".","."],[".","."],[".","."],[".","."]]],"numberofstrings":6,"notes":["E","B","G","D","A","E","B"],"capo":0,"stringnotes":["E4","B3","G3","D3","A2","E2"],"comments":["Stave 1:","Stave 2:","Stave 3:","Stave 4:","Stave 5:","Stave 6:"],"timing":[["W",null,"W",null,"W",null,"W",null,"W",null,"W",null,"W",null,"W",null,"W",null,"W",null,"W",null,"W","W"],["W",null,"W","W",null,"W",null,"W",null,"W","W","W"],["W","W","W","W","W","W","W","W","W","W","W","W","W","W","W","W","W","W","W","W","W","W","W","W","W","W","W","W","W","W","W","W","W","W","W","W"],["W","W","W","W","W","W","W","W","W","W","W","W","W","W","W","W","W"],["W","W","W","W","W","W"],["W"]],"timingvisible":false,"tabcounter":2,"stave":5,"totalstaves":6,"instrument":"6guitar","selectedtuning":"6_standard","version":"13"}

Member for

1 month 2 weeks
About Me
In band called Echo Strike
Submitted by beaunewlin on Sat, 2021-03-06 10:47