Sound will begin in 5 seconds

Let It Be Solo

Chords
01234567891011121314151617181920212223
E
B
G
D
A
E
B
0 1 2 3 4 5 6 7 8 9 10 11 12 13 14 15 16 17 18 19 20 21 22 23
Song Science #1: How Pros Use 6 Chords to Write Hit Songs
(/) Slide Up  (\) Slide Down  (h) Hammer On  (p) Pull Off  (b) Bend (r) Release (v) Vibrato

Stave 1:

E|---------------------------------------------------------
B|--5--5---------------------------------------------------
G|--5--5-----------------------------------5--7b7--5/7--5--
D|--5--5------------------5--5-----5--5/7------------------
A|--------7/5--3/5--3--7--------7--------------------------
E|---------------------------------------------------------

Stave 2:

E|-------8----------------------------------------------
B|-----------------------8------------------------------
G|--7b7-----7b7--5--7b7-----7b7--5----------------------
D|----------------------------------7/5h7---------------
A|-----------------------------------------7p5--3h5--3--
E|------------------------------------------------------

Stave 3:

E|---------------------------------------------------8--10b10--
B|----------------------8b8-----8b8-----8--10--8h10------------
G|-------5--5-----5--9-------9-------9-------------------------
D|--5h7--------7-----------------------------------------------
A|-------------------------------------------------------------
E|-------------------------------------------------------------

Stave 4:

E|--10b10--8h10--8--16\15-----------------------------------
B|-------------------------15b15--13--15--15b15--13h15--13--
G|----------------------------------------------------------
D|----------------------------------------------------------
A|----------------------------------------------------------
E|----------------------------------------------------------

http://www.guitartabcreator.com
Guitar Tab Creator is intended to store guitar tab created through the tool. It currently does not support in-line text editing. Any text you place in here will be lost. If you need to comment on your tab, please use the "Tab Notes" section located below.