Sound will begin in 5 seconds

TNT - solo

01234567891011121314151617181920212223
E
B
G
D
A
E
B
0 1 2 3 4 5 6 7 8 9 10 11 12 13 14 15 16 17 18 19 20 21 22 23
Song Science #1: How Pros Use 6 Chords to Write Hit Songs
(/) Slide Up  (\) Slide Down  (h) Hammer On  (p) Pull Off  (b) Bend (r) Release (v) Vibrato

Stave 1:

E|----------------3--2--0-------------------------
B|-------------------------3--2p0-----------------
G|--2b4--2b4-----------------------2p0-------0----
D|--------------------------------------3p0-------
A|------------------------------------------------
E|----------------------------------------------0\

Stave 2:

E|----
B|----
G|----
D|----
A|----
E|----

Stave 3:

E|---------12-------------------------------------------------------------12----------12-------------
B|--15b17------15--12------12-----------------------------------------12------12--12------12--15b17--
G|---------------------14------14--12------14------12b13r12----14b16---------------------------------
D|-------------------------------------14------14----------------------------------------------------
A|---------------------------------------------------------------------------------------------------
E|---------------------------------------------------------------------------------------------------

Stave 4:

E|--12--15--12------12------------------------------------------------------------------
B|--------------15------15--12------12--------------------------------------------------
G|------------------------------14------14--12------14------12b13-----------------------
D|----------------------------------------------14------14---------14p12--14--14--------
A|--------------------------------------------------------------------------------------
E|--------------------------------------------------------------------------------------

http://www.guitartabcreator.com
Guitar Tab Creator is intended to store guitar tab created through the tool. It currently does not support in-line text editing. Any text you place in here will be lost. If you need to comment on your tab, please use the "Tab Notes" section located below.