Sound will begin in 5 seconds

SweetCildOfMineSolo-Two

01234567891011121314151617181920212223
E
B
G
D
A
E
B
0 1 2 3 4 5 6 7 8 9 10 11 12 13 14 15 16 17 18 19 20 21 22 23
Song Science #1: How Pros Use 6 Chords to Write Hit Songs
(/) Slide Up  (\) Slide Down  (h) Hammer On  (p) Pull Off  (b) Bend (r) Release (v) Vibrato

Stave 1:

E|--_----------------------------------------------------------------------------------------------
B|--_-------------------------------------------------------------------------------15-------------
G|--_--14--12--11--14--12--11--14--12------14--12------14--12--11b12r11------11b12------11b12r11v--
D|--_----------------------------------14----------14--------------------12------------------------
A|--_----------------------------------------------------------------------------------------------
E|--22----------------------------------------------------------------------------------------------

Stave 2:

E|------------------------------------------------------------------------------------------
B|-----------------------------15--15--15--13--15b17--17--17r15--15\13--12b13r12------------
G|--14--12--11--14--12--14b16-----------------------------------------------------12--------
D|------------------------------------------------------------------------------------12----
A|------------------------------------------------------------------------------------------
E|------------------------------------------------------------------------------------------

Stave 3:

E|---------------------------------------------17--
B|-----------------------15----b17r15v--17b19------
G|--14b15r14--12--14b16----------------------------
D|-------------------------------------------------
A|-------------------------------------------------
E|-------------------------------------------------

http://www.guitartabcreator.com
Guitar Tab Creator is intended to store guitar tab created through the tool. It currently does not support in-line text editing. Any text you place in here will be lost. If you need to comment on your tab, please use the "Tab Notes" section located below.