Sound will begin in 5 seconds

Kings of Leon - Sex on Fire Tab

01234567891011121314151617181920212223
E
B
G
D
A
E
B
0 1 2 3 4 5 6 7 8 9 10 11 12 13 14 15 16 17 18 19 20 21 22 23
Song Science #1: How Pros Use 6 Chords to Write Hit Songs
(/) Slide Up  (\) Slide Down  (h) Hammer On  (p) Pull Off  (b) Bend (r) Release (v) Vibrato

Stave 1:

E|------------------------------
B|------------------------------
G|------------------------------
D|------------------------------
A|-----16-----14-----14-----14--
E|--0------0------0------0------

Stave 2:

E|------------------------------------------------------------
B|------------------------------------------------------------
G|------------------------------------------------------------
D|------------------------------------------------------------
A|-------12-----11-----11-----11-----12-----11-----11-----11--
E|----0------0------9------9------9------9------9------9------

Stave 3:

E|------------------------------
B|------------------------------
G|------------------------------
D|------------------------------
A|-----16-----14-----14-----14--
E|--0------0------0------0------

Stave 4:

E|------------------------------
B|------------------------------
G|------------------------------
D|-------------------13---------
A|-----12-----11------------11--
E|--9------9------9------9------

Stave 5:

E|---------------------
B|---------------------
G|--9--8--13--6--8--x--
D|--9--9--13--6--6--6--
A|--7--7--11--4--4--4--
E|---------------------

Stave 6:

E|-------------------
B|----------------7--
G|----9--9--6--8--8--
D|----9--9--6--6--6--
A|----7--6--4--6--6--
E|----------x--------

http://www.guitartabcreator.com
Guitar Tab Creator is intended to store guitar tab created through the tool. It currently does not support in-line text editing. Any text you place in here will be lost. If you need to comment on your tab, please use the "Tab Notes" section located below.