Sound will begin in 5 seconds

If Trouble Were Money - Gary Clark Jr

Chords
01234567891011121314151617181920212223
E
B
G
D
A
E
B
0 1 2 3 4 5 6 7 8 9 10 11 12 13 14 15 16 17 18 19 20 21 22 23
Song Science #1: How Pros Use 6 Chords to Write Hit Songs
(/) Slide Up  (\) Slide Down  (h) Hammer On  (p) Pull Off  (b) Bend (r) Release (v) Vibrato

Stave 1:

E|-------------------------
B|------------------10--8--
G|------------------10--8--
D|--------8--10-----10--8--
A|--8/10-------------------
E|---------------8--8------

Stave 2:

E|--x---------------------------------------
B|--6--6------------------------------------
G|--8-----8---------------------8/10\8------
D|--7--------7-----------8--10----------10--
A|--8-----------8--8/10---------------------
E|--x---------------------------------------

Stave 3:

E|---------------------------------------------------8---------------------------------------------
B|---------------------------------------------8h11-----11b13--11--8------------------------10--8--
G|------8--10--8--10b11b10p9p8----------8--10-------------------------10b12b10p8------------10--8--
D|--10--------------------------10--10--------------------------------------------10--------10--8--
A|-------------------------------------------------------------------------------------------------
E|------------------------------------------------------------------------------------8--8---------

Stave 4:

E|--8--2-----
B|--3--------
G|--4--------
D|-----------
A|-----------
E|-----------

Stave 5:

E|--11p8------------------x--11p8--------------
B|-----11p8---------------6-----11p8-----------
G|--------10b12b10p8------8--------------------
D|--------------------10--7-----------10-9-10--
A|------------------------8-----------9--8-9---
E|------------------------x-----------10-9-10--

Stave 6:

E|--------------------------------------------------
B|--------------------------------------------------
G|--------------------------------------------------
D|----------9------/10-11--------9-----10-----------
A|--10--11--10------9-/10---------------------------
E|--------------------------------------------------

Stave 7:

E|-------------------
B|-------------------
G|-------------------
D|----------9--8/9---
A|--10--11--10\9-10--
E|-------------------

Stave 8:

E|------------------11-----10-----8--
B|------------------11-----10-----8--
G|-----------------------------------
D|--------8--10----------------------
A|--8/10-----------------------------
E|---------------8------8------8-----

http://www.guitartabcreator.com
Guitar Tab Creator is intended to store guitar tab created through the tool. It currently does not support in-line text editing. Any text you place in here will be lost. If you need to comment on your tab, please use the "Tab Notes" section located below.