Sound will begin in 5 seconds

3 O' Clock Blues

Chords
01234567891011121314151617181920212223
E
B
G
D
A
E
B
0 1 2 3 4 5 6 7 8 9 10 11 12 13 14 15 16 17 18 19 20 21 22 23
Song Science #1: How Pros Use 6 Chords to Write Hit Songs
(/) Slide Up  (\) Slide Down  (h) Hammer On  (p) Pull Off  (b) Bend (r) Release (v) Vibrato

Stave 1:

E|-----------6---------------------------6--9/12--13--12--13--12--11--10---------------------------
B|--------6-----10--6-----------------------------------------------------11--6--8/11--6-----------
G|--8b10---------------8--6-----------8---------------------------------------------------8--6-----
D|---------------------------8--6-----7---------------------------------------------------------8--
A|---------------------------------8--8------------------------------------------------------------
E|-------------------------------------------------------------------------------------------------

Stave 2:

E|----------6----------------------------------------
B|-------6-----9--6----------6-----------6--6--6-----
G|--6h7--------------8--6h7--------6--7--------------
D|------------------------------8--------------------
A|---------------------------------------------------
E|---------------------------------------------------

Stave 3:

E|--9--6--6--6--------------------------
B|--------------8/11--6--------------4--
G|-----------------------8--6--------6--
D|-----------------------------8--6--5--
A|-----------------------------------6--
E|--------------------------------------

Stave 4:

E|-----------6-----------------------------------------6-----
B|--------6-----9--6--------------------------------6-----6--
G|--8b10--------------8b9b8--6--8--6-----------6h7-----------
D|------------------------------------8--8--8----------------
A|-----------------------------------------------------------
E|-----------------------------------------------------------

Stave 5:

E|-----------6--------------------------------------------------
B|--------6-----9--6-----------------------------------------6--
G|--8b10--------------8b9b8--6--8--6--------------6h7--------8--
D|------------------------------------8-----6--8-------8-----7--
A|---------------------------------------8----------------8--8--
E|--------------------------------------------------------------

http://www.guitartabcreator.com
Guitar Tab Creator is intended to store guitar tab created through the tool. It currently does not support in-line text editing. Any text you place in here will be lost. If you need to comment on your tab, please use the "Tab Notes" section located below.