Baby Please Don't Go -- Sabine McCalla

01234567891011121314151617181920212223
E
B
G
D
A
E
B
0 1 2 3 4 5 6 7 8 9 10 11 12 13 14 15 16 17 18 19 20 21 22 23
(/) Slide Up  (\) Slide Down  (h) Hammer On  (p) Pull Off  (b) Bend (r) Release (v) Vibrato

Capo Fret 2

Intro

D|--------5-----------------5--------------------5--------------------5-----------5-----------
A|--------3-----------------3--------------------3--------------------3-----------3-----------
F|--------------------------------------------------------------------------------------------
C|--------4--4--------------4--4-----------------4--4-----------------4--4--------4--4--------
G|-----5--------5--0--------5-----5--0--------5--------5--0--------5--------5--5--------5--5--
D|--5--------------------5-----------------5-----------------5--------------------------------

Verse 1

D|--5--------------------5--------------------5-----------------------------------
A|--3--------------------3--------------------3-----------3-----------------------
F|--------------------------------------------------------------------------------
C|--4--4-----------------4--4-----------------4--4--------4-----------------------
G|--------5--0--------5--------5--0--------5--------5--0-----0--5-----------------
D|-----------------5--------------------5-----------------------------------------

Verse 2

D|--------5--------------------5--------------------5-----------------------------------------5--------------
A|--------3-----------3--------3--------------------3-----------3-----------------------------3--------------
F|-----------------------------------------------------------------------------------------------------------
C|--------4--4--------4--------4--4-----------------4--4--------4-----------------------------4--4-----------
G|-----5--------5--0-----0--5--------5--0--------5--------5--0-----0--5-----------0--------5--------5--0--0--
D|--5-----------------------------------------5--------------------------------------------------------------

							http://www.guitartabcreator.com
Chords

genre
Instruments
{"strings":[[[".",".",5,".",".",".","_",".",5,".",".",".","_",".",".",5,".",".",".",".","_",".",5,".",".",".",5,".",".","."],[".",".",3,".",".",".","_",".",3,".",".",".","_",".",".",3,".",".",".",".","_",".",3,".",".",".",3,".",".","."],[".",".",".",".",".",".","_",".",".",".",".",".","_",".",".",".",".",".",".",".","_",".",".",".",".",".",".",".",".","."],[".",".",4,4,".",".","_",".",4,4,".",".","_",".",".",4,4,".",".",".","_",".",4,4,".",".",4,4,".","."],[".",5,".",".",5,0,"_",".",5,".",5,0,"_",".",5,".",".",5,0,".","_",5,".",".",5,5,".",".",5,5],[5,".",".",".",".",".","_",5,".",".",".",".","_",5,".",".",".",".",".",5,"_",".",".",".",".",".",".",".",".","."]],[[5,".",".",".","_",".",".",5,".",".",".","_",".",".",5,".",".",".",".",".",".","_","_","_","_","_"],[3,".",".",".","_",".",".",3,".",".",".","_",".",".",3,".",".",".",3,".",".","_","_","_","_","_"],[".",".",".",".","_",".",".",".",".",".",".","_",".",".",".",".",".",".",".",".",".","_","_","_","_","_"],[4,4,".",".","_",".",".",4,4,".",".","_",".",".",4,4,".",".",4,".",".","_","_","_","_","_"],[".",".",5,0,"_",".",5,".",".",5,0,"_",".",5,".",".",5,0,".",0,5,"_","_","_","_","_"],[".",".",".",".","_",5,".",".",".",".",".","_",5,".",".",".",".",".",".",".",".","_","_","_","_","_"]],[[".",".",5,".",".",".",".",".",".",5,".",".",".","_",".",".",5,".",".",".",".",".",".","_","_","_",".","_","_",".",5,".",".",".","."],[".",".",3,".",".",".",3,".",".",3,".",".",".","_",".",".",3,".",".",".",3,".",".","_","_","_",".","_","_",".",3,".",".",".","."],[".",".",".",".",".",".",".",".",".",".",".",".",".","_",".",".",".",".",".",".",".",".",".","_","_","_",".","_","_",".",".",".",".",".","."],[".",".",4,4,".",".",4,".",".",4,4,".",".","_",".",".",4,4,".",".",4,".",".","_","_","_",".","_","_",".",4,4,".",".","."],[".",5,".",".",5,0,".",0,5,".",".",5,0,"_",".",5,".",".",5,0,".",0,5,"_","_","_",0,"_","_",5,".",".",5,0,0],[5,".",".",".",".",".",".",".",".",".",".",".",".","_",5,".",".",".",".",".",".",".",".","_","_","_",".","_","_",".",".",".",".",".","."]]],"numberofstrings":6,"notes":["D","A","F","C","G","D"],"capo":"2","stringnotes":["D3","A2","F2","C2","G1","D1"],"comments":["Intro","Verse 1","Verse 2"],"timing":[["W","W","W","W","W","W",null,"W","W","W","W","W",null,"W","W","W","W","W","W","W",null,"W","W","W","W","W","W","W","W","W","W"],["W","W","W","W",null,"W","W","W","W","W","W",null,"W","W","W","W","W","W","W","W","W","W",null,null,null,null,"W","W"],["W","W","W","W","W","W","W","W","W","W","W","W","W",null,"W","W","W","W","W","W","W","W","W","W",null,null,"W",null,null,"W","W","W","W","W","W"]],"timingvisible":false,"tabcounter":35,"stave":2,"totalstaves":3,"instrument":"6guitar","selectedtuning":"Full Step Down","version":"13"}

Member for

8 months 3 weeks
Submitted by bbat on Mon, 2020-04-27 22:44