Sound will begin in 5 seconds

Apophis (Transition Part 1 Root)

01234567891011121314151617181920212223
E
B
G
D
A
E
B
0 1 2 3 4 5 6 7 8 9 10 11 12 13 14 15 16 17 18 19 20 21 22 23
Song Science #1: How Pros Use 6 Chords to Write Hit Songs
(/) Slide Up  (\) Slide Down  (h) Hammer On  (p) Pull Off  (b) Bend (r) Release (v) Vibrato

Stave 1:

E|------------------------------------------------------------------------------------
B|------------------------------------------------------------------------------------
G|------------------------------------------------------------------------------------
D|----------------------------5/7--------------------------------------5/7------------
A|-----2--3-------5-----7-------------10--7-----2--3-------5-----7-------------10--7--
E|--0--------1/3-----5-----8-------8---------0--------1/3-----5-----8-------8---------

Stave 2:

E|------------------------------------------------------------------------------------------
B|------------------------------------------------------------------------------------------
G|-----------------------------7/9---------------------------------------------7/9----------
D|-----4--5-------7-----9---------------12p9\7---------4--5-------7-----9---------------12--
A|--2--------3/5-----7-----10-------10----------10--2--------3/5-----7-----10-------10------
E|------------------------------------------------------------------------------------------

Stave 3:

E|--------------------------------------------------------------------------
B|--------------------------------------------------------------------------
G|--------------------------------------------------------------------------
D|-----2--3-----9---------5-------7--------2--3-----9---------5-------7-----
A|--0--------7-----10--3-----3/5-----8--0--------7-----10--3-----3/5-----8--
E|--------------------------------------------------------------------------

Stave 4:

E|----------------------7------------------------
B|------------8-----10-----8p7-------------------
G|-----9---------9--------------9--8-------------
D|--7-----10--------------------------10--9------
A|-------------------------------------------10--
E|-----------------------------------------------

http://www.guitartabcreator.com
Guitar Tab Creator is intended to store guitar tab created through the tool. It currently does not support in-line text editing. Any text you place in here will be lost. If you need to comment on your tab, please use the "Tab Notes" section located below.