Sound will begin in 5 seconds

Apophis (Transition Part 1 Harmony)

01234567891011121314151617181920212223
E
B
G
D
A
E
B
0 1 2 3 4 5 6 7 8 9 10 11 12 13 14 15 16 17 18 19 20 21 22 23
Song Science #1: How Pros Use 6 Chords to Write Hit Songs
(/) Slide Up  (\) Slide Down  (h) Hammer On  (p) Pull Off  (b) Bend (r) Release (v) Vibrato

Stave 1:

E|----------------------------------------------------------------------------------------
B|----------------------------------------------------------------------------------------
G|-----------------------------7/9----------------------------------------7/9-------------
D|-----4--5-------7-----9---------------12--9-----4--5-------7-----9---------------12--9--
A|--2--------3/5-----7-----10-------10---------2--------3/5-----7-----10-------10---------
E|----------------------------------------------------------------------------------------

Stave 2:

E|---------------------------------------------------------------------------------------------------
B|------------------------------10--12-----------------------------------------------10--12----------
G|-----6--7-------9-----11------------------14p11/9---------6--7-------9-----11------------------14--
D|--4--------5/7-----9------12----------12-----------12--4--------5/7-----9------12----------12------
A|---------------------------------------------------------------------------------------------------
E|---------------------------------------------------------------------------------------------------

Stave 3:

E|------------------------------------
B|------------------------------------
G|--------2-----7--4-----4-------5--2/
D|-----5-----5--------2-----2/3-------
A|--3---------------------------------
E|------------------------------------

Stave 4:

E|--------------------2----------------------
B|-----------3-----5-----3p2-----------------
G|-----4--------4-------------4--3-----------
D|--2-----5-------------------------5--4-----
A|----------------------------------------5--
E|-------------------------------------------

http://www.guitartabcreator.com
Guitar Tab Creator is intended to store guitar tab created through the tool. It currently does not support in-line text editing. Any text you place in here will be lost. If you need to comment on your tab, please use the "Tab Notes" section located below.