Consider the source - Closer to home

01234567891011121314151617181920212223
E
B
G
D
A
E
B
0 1 2 3 4 5 6 7 8 9 10 11 12 13 14 15 16 17 18 19 20 21 22 23
(/) Slide Up  (\) Slide Down  (h) Hammer On  (p) Pull Off  (b) Bend (r) Release (v) Vibrato

Stave 1:

B |----------------------------------------------------------------------------------------------------------------
Gb|--------7v------7v------12v------12v-----12v-----7v--5v----------12v------12v-----12v-----7v-----7v--7v-----7v--
Db|-----8------10------13-------10-------9-------8----------5v--13-------10-------9-------8------8----------8------
Ab|----------------------------------------------------------------------------------------------------------------
Eb|----------------------------------------------------------------------------------------------------------------

Stave 2:

B |--------------------------------------------------------------------------------------------------------------------------
Gb|-----7v--7v------7v------7v--7v------7v------7v--7v------12v------12v--12v------12v------12v--12v------12v------12v--12v--
Db|--8----------10------10----------10------10----------13-------13------------13-------13------------10-------10------------
Ab|--------------------------------------------------------------------------------------------------------------------------
Eb|--------------------------------------------------------------------------------------------------------------------------

Stave 3:

B |---------------------------------------------------------------------------------------------------------------------
Gb|-----12v-----12v--12v--------7v--7v-----7v--7v--------7v--7v-----7v--7v----------7v--7v------7v--7v----------7v--7v--
Db|--9-------9------------8--8----------8----------8--8----------8----------10--10----------10----------10--10----------
Ab|---------------------------------------------------------------------------------------------------------------------
Eb|---------------------------------------------------------------------------------------------------------------------

Stave 4:

B |----------------------------------------------------------------------------------------------
Gb|------7v--7v----------12v--12v------12v--12v----------12v--12v------12v--12v------12v--4v-----
Db|--10----------13--13------------13------------13--13------------13------------10--------------
Ab|----------------------------------------------------------------------------------------------
Eb|----------------------------------------------------------------------------------------------

Stave 5:

B |--------------------------------------------------------------------------------------------------------------------
Gb|--------7v--------7v--------7v--------7v----------7v----------7v----------7v----------7v----------12v----------12v--
Db|--8--8------8--8------8--8------8--8------10--10------10--10------10--10------10--10------13--13-------13--13-------
Ab|--------------------------------------------------------------------------------------------------------------------
Eb|--------------------------------------------------------------------------------------------------------------------

Stave 6:

B |----------------------------------------------------------------------------
Gb|----------12v----------12v----------12v----------12v--------12v--------12v--
Db|--13--13-------13--13-------10--10-------10--10-------9--9-------9--9-------
Ab|----------------------------------------------------------------------------
Eb|----------------------------------------------------------------------------

Stave 7:

B |------------------------------------------------------------------------------------------------------------------------------
Gb|--------7--------7--------7--------7---------7---------7---------7---------7----------12----------12----------12----------12--
Db|-----8--------8--------8--------8--------10--------10--------10--------10---------13----------13----------13----------13------
Ab|------------------------------------------------------------------------------------------------------------------------------
Eb|--6--------6--------6--------6--------8---------8---------8---------8---------11----------11----------11----------11----------

Stave 8:

B |---------7---------7--------7--------7------------------------------------------------------------------------------
Gb|----------------------------------------------7--------7--------7--------7---------7---------7---------7---------7--
Db|-----10--------10--------9--------9--------8--------8--------8--------8--------10--------10--------10--------10-----
Ab|--------------------------------------------------------------------------------------------------------------------
Eb|--8---------8---------7--------7--------6--------6--------6--------6--------8---------8---------8---------8---------

Stave 9:

B |---------------------------------------------------------------
Gb|----------12----------12----------12----------12---------------
Db|------13----------13----------13----------13---------10--------
Ab|---------------------------------------------------------------
Eb|--11----------11----------11----------11----------8------8--7--

Stave 10:

B |----------------------------------------------------------------------------------------------------------------------
Gb|-----7v---------------7v-----7v--------7v---------------7v-----7v---------------7v-----7v--------7v---------------7v--
Db|---------------7v--------------------------------7v----------------------7v--------------------------------7v---------
Ab|--6------6--6------6------6------6--6------6--6------6------5------5--5------5------5------5--5------5--5------5------
Eb|----------------------------------------------------------------------------------------------------------------------

Stave 11:

B |--------------------------------------------------------------------------------------------------------------------------------
Gb|------7v------------------7v------7v----------7v------------------7v-----7v---------------7v-----7v--------7v---------------7v--
Db|------------------7v--------------------------------------7v-----------------------7v--------------------------------7v---------
Ab|--10------10--10------10------10------10--10------10--10------10------8------8--8------8------8------8--8------8--8------8------
Eb|--------------------------------------------------------------------------------------------------------------------------------

							http://www.guitartabcreator.com
Chords

Tab Notes
V=harmonics repeat stave 5 & 6, 10 & 11 Stave 10 & 11 are all slap.
Instruments
{"strings":[[["_",".",null,null,null,null,".",".",".",".",".",".",".",".",".",".",".",".",".",".",".",".",".",".",".",".",".",".",".",".",".",".",".",".",".",".",".",".",".",".",".",".",".",".",".",".","."],["_",".",null,null,null,null,7,"v",".",7,"v",".",12,"v",".",12,"v",".",12,"v",".",7,"v",5,"v",".",".",".",12,"v",".",12,"v",".",12,"v",".",7,"v",".",7,"v",7,"v",".",7,"v"],["_",8,null,null,null,null,".",".",10,".",".",13,".",".",10,".",".",9,".",".",8,".",".",".",".",5,"v",13,".",".",10,".",".",9,".",".",8,".",".",8,".",".",".",".",8,".","."],["_",".",null,null,null,null,".",".",".",".",".",".",".",".",".",".",".",".",".",".",".",".",".",".",".",".",".",".",".",".",".",".",".",".",".",".",".",".",".",".",".",".",".",".",".",".","."],["_",".",null,null,null,null,".",".",".",".",".",".",".",".",".",".",".",".",".",".",".",".",".",".",".",".",".",".",".",".",".",".",".",".",".",".",".",".",".",".",".",".",".",".",".",".","."]],[[".",".",".",".",".",".",".",".",".",".",".",".",".",".",".",".",".",".",".",".",".",".",".",".",".",".",".",".",".",".",".",".",".",".",".",".",".",".",".",".",".",".",".",".","."],[".",7,"v",7,"v",".",7,"v",".",7,"v",7,"v",".",7,"v",".",7,"v",7,"v",".",12,"v",".",12,"v",12,"v",".",12,"v",".",12,"v",12,"v",".",12,"v",".",12,"v",12,"v"],[8,".",".",".",".",10,".",".",10,".",".",".",".",10,".",".",10,".",".",".",".",13,".",".",13,".",".",".",".",13,".",".",13,".",".",".",".",10,".",".",10,".",".",".","."],[".",".",".",".",".",".",".",".",".",".",".",".",".",".",".",".",".",".",".",".",".",".",".",".",".",".",".",".",".",".",".",".",".",".",".",".",".",".",".",".",".",".",".",".","."],[".",".",".",".",".",".",".",".",".",".",".",".",".",".",".",".",".",".",".",".",".",".",".",".",".",".",".",".",".",".",".",".",".",".",".",".",".",".",".",".",".",".",".",".","."]],[[".",".",".",".",".",".",".",".",".",".",".",".",".",".",".",".",".",".",".",".",".",".",".",".",".",".",".",".",".",".",".",".",".",".",".",".",".",".",".",".",".",".",".",".",".",".","."],[".",12,"v",".",12,"v",12,"v",".",".",7,"v",7,"v",".",7,"v",7,"v",".",".",7,"v",7,"v",".",7,"v",7,"v",".",".",7,"v",7,"v",".",7,"v",7,"v",".",".",7,"v",7,"v"],[9,".",".",9,".",".",".",".",8,8,".",".",".",".",8,".",".",".",".",8,8,".",".",".",".",8,".",".",".",".",10,10,".",".",".",".",10,".",".",".",".",10,10,".",".",".","."],[".",".",".",".",".",".",".",".",".",".",".",".",".",".",".",".",".",".",".",".",".",".",".",".",".",".",".",".",".",".",".",".",".",".",".",".",".",".",".",".",".",".",".",".",".",".","."],[".",".",".",".",".",".",".",".",".",".",".",".",".",".",".",".",".",".",".",".",".",".",".",".",".",".",".",".",".",".",".",".",".",".",".",".",".",".",".",".",".",".",".",".",".",".","."]],[[".",".",".",".",".",".",".",".",".",".",".",".",".",".",".",".",".",".",".",".",".",".",".",".",".",".",".",".",".",".",".",".","_"],[".",7,"v",7,"v",".",".",12,"v",12,"v",".",12,"v",12,"v",".",".",12,"v",12,"v",".",12,"v",12,"v",".",12,"v",4,"v","_"],[10,".",".",".",".",13,13,".",".",".",".",13,".",".",".",".",13,13,".",".",".",".",13,".",".",".",".",10,".",".",".",".","_"],[".",".",".",".",".",".",".",".",".",".",".",".",".",".",".",".",".",".",".",".",".",".",".",".",".",".",".",".",".",".",".",".","_"],[".",".",".",".",".",".",".",".",".",".",".",".",".",".",".",".",".",".",".",".",".",".",".",".",".",".",".",".",".",".",".",".","_"]],[[".",".",".",".",".",".",".",".",".",".",".",".",".",".",".",".",".",".",".",".",".",".",".",".",".",".",".",".",".",".",".",".",".",".",".",".",".",".",".","."],[".",".",7,"v",".",".",7,"v",".",".",7,"v",".",".",7,"v",".",".",7,"v",".",".",7,"v",".",".",7,"v",".",".",7,"v",".",".",12,"v",".",".",12,"v"],[8,8,".",".",8,8,".",".",8,8,".",".",8,8,".",".",10,10,".",".",10,10,".",".",10,10,".",".",10,10,".",".",13,13,".",".",13,13,".","."],[".",".",".",".",".",".",".",".",".",".",".",".",".",".",".",".",".",".",".",".",".",".",".",".",".",".",".",".",".",".",".",".",".",".",".",".",".",".",".","."],[".",".",".",".",".",".",".",".",".",".",".",".",".",".",".",".",".",".",".",".",".",".",".",".",".",".",".",".",".",".",".",".",".",".",".",".",".",".",".","."]],[[".",".",".",".",".",".",".",".",".",".",".",".",".",".",".",".",".",".",".",".",".",".",".","."],[".",".",12,"v",".",".",12,"v",".",".",12,"v",".",".",12,"v",".",".",12,"v",".",".",12,"v"],[13,13,".",".",13,13,".",".",10,10,".",".",10,10,".",".",9,9,".",".",9,9,".","."],[".",".",".",".",".",".",".",".",".",".",".",".",".",".",".",".",".",".",".",".",".",".",".","."],[".",".",".",".",".",".",".",".",".",".",".",".",".",".",".",".",".",".",".",".",".",".",".","."]],[[".",".",".",".",".",".",".",".",".",".",".",".",".",".",".",".",".",".",".",".",".",".",".",".",".",".",".",".",".",".",".",".",".",".",".","."],[".",".",7,".",".",7,".",".",7,".",".",7,".",".",7,".",".",7,".",".",7,".",".",7,".",".",12,".",".",12,".",".",12,".",".",12],[".",8,".",".",8,".",".",8,".",".",8,".",".",10,".",".",10,".",".",10,".",".",10,".",".",13,".",".",13,".",".",13,".",".",13,"."],[".",".",".",".",".",".",".",".",".",".",".",".",".",".",".",".",".",".",".",".",".",".",".",".",".",".",".",".",".",".",".",".",".",".",".","."],[6,".",".",6,".",".",6,".",".",6,".",".",8,".",".",8,".",".",8,".",".",8,".",".",11,".",".",11,".",".",11,".",".",11,".","."]],[[".",".",7,".",".",7,".",".",7,".",".",7,".",".",".",".",".",".",".",".",".",".",".",".",".",".",".",".",".",".",".",".",".",".",".","."],[".",".",".",".",".",".",".",".",".",".",".",".",".",".",7,".",".",7,".",".",7,".",".",7,".",".",7,".",".",7,".",".",7,".",".",7],[".",10,".",".",10,".",".",9,".",".",9,".",".",8,".",".",8,".",".",8,".",".",8,".",".",10,".",".",10,".",".",10,".",".",10,"."],[".",".",".",".",".",".",".",".",".",".",".",".",".",".",".",".",".",".",".",".",".",".",".",".",".",".",".",".",".",".",".",".",".",".",".","."],[8,".",".",8,".",".",7,".",".",7,".",".",6,".",".",6,".",".",6,".",".",6,".",".",8,".",".",8,".",".",8,".",".",8,".","."]],[[".",".",".",".",".",".",".",".",".",".",".",".",".",".",".","."],[".",".",12,".",".",12,".",".",12,".",".",12,".",".",".","."],[".",13,".",".",13,".",".",13,".",".",13,".",".",10,".","."],[".",".",".",".",".",".",".",".",".",".",".",".",".",".",".","."],[11,".",".",11,".",".",11,".",".",11,".",".",8,".",8,7]],[[".",".",".",".",".",".",".",".",".",".",".",".",".",".",".",".",".",".",".",".",".",".",".",".",".",".",".",".",".",".",".",".",".",".",".",".",".",".",".",".",".",".",".",".",".",".",".","."],[".",7,"v",".",".",".",".",".",7,"v",".",7,"v",".",".",7,"v",".",".",".",".",".",7,"v",".",7,"v",".",".",".",".",".",7,"v",".",7,"v",".",".",7,"v",".",".",".",".",".",7,"v"],[".",".",".",".",".",7,"v",".",".",".",".",".",".",".",".",".",".",".",".",7,"v",".",".",".",".",".",".",".",".",7,"v",".",".",".",".",".",".",".",".",".",".",".",".",7,"v",".",".","."],[6,".",".",6,6,".",".",6,".",".",6,".",".",6,6,".",".",6,6,".",".",6,".",".",5,".",".",5,5,".",".",5,".",".",5,".",".",5,5,".",".",5,5,".",".",5,".","."],[".",".",".",".",".",".",".",".",".",".",".",".",".",".",".",".",".",".",".",".",".",".",".",".",".",".",".",".",".",".",".",".",".",".",".",".",".",".",".",".",".",".",".",".",".",".",".","."]],[[".",".",".",".",".",".",".",".",".",".",".",".",".",".",".",".",".",".",".",".",".",".",".",".",".",".",".",".",".",".",".",".",".",".",".",".",".",".",".",".",".",".",".",".",".",".",".","."],[".",7,"v",".",".",".",".",".",7,"v",".",7,"v",".",".",7,"v",".",".",".",".",".",7,"v",".",7,"v",".",".",".",".",".",7,"v",".",7,"v",".",".",7,"v",".",".",".",".",".",7,"v"],[".",".",".",".",".",7,"v",".",".",".",".",".",".",".",".",".",".",".",".",7,"v",".",".",".",".",".",".",".",".",7,"v",".",".",".",".",".",".",".",".",".",".",".",".",7,"v",".",".","."],[10,".",".",10,10,".",".",10,".",".",10,".",".",10,10,".",".",10,10,".",".",10,".",".",8,".",".",8,8,".",".",8,".",".",8,".",".",8,8,".",".",8,8,".",".",8,".","."],[".",".",".",".",".",".",".",".",".",".",".",".",".",".",".",".",".",".",".",".",".",".",".",".",".",".",".",".",".",".",".",".",".",".",".",".",".",".",".",".",".",".",".",".",".",".",".","."]]],"numberofstrings":5,"notes":["B","FsGb","CsDb","GsAb","DsEb"],"capo":0,"stringnotes":["B1","Gb2","Db2","Ab1","Eb1"],"comments":["Stave 1:","Stave 2:","Stave 3:","Stave 4:","Stave 5:","Stave 6:","Stave 7:","Stave 8:","Stave 9:","Stave 10:","Stave 11:"],"timing":[["W","W","W",null,null,null,"W",null,"W","W",null,"W","W",null,"W","W",null,"W","W",null,"W","W",null,"W",null,"W",null,"W","W",null,"W","W",null,"W","W",null,"W","W",null,"W","W",null,"W",null,"W","W"],["W","W",null,"W",null,"W","W",null,"W","W",null,"W",null,"W","W",null,"W","W",null,"W",null,"W","W",null,"W","W",null,"W",null,"W","W",null,"W","W",null,"W",null,"W","W",null,"W","W",null,"W",null],["W","W",null,"W","W",null,"W",null,"W","W","W",null,"W",null,"W","W",null,"W",null,"W","W","W",null,"W",null,"W","W",null,"W",null,"W","W","W",null,"W",null,"W","W",null,"W",null,"W","W","W",null,"W"],["W","W",null,"W",null,"W","W","W",null,"W",null,"W","W",null,"W",null,"W","W","W",null,"W",null,"W","W",null,"W",null,"W","W",null,"W",null,"W"],["W","W","W",null,"W","W","W",null,"W","W","W",null,"W","W","W",null,"W","W","W",null,"W","W","W",null,"W","W","W",null,"W","W","W",null,"W","W","W",null,"W","W","W",null],["W","W","W",null,"W","W","W",null,"W","W","W",null,"W","W","W",null,"W","W","W",null,"W","W","W"],["W","W","W","W","W","W","W","W","W","W","W","W","W","W","W","W","W","W","W","W","W","W","W","W","W","W","W","W","W","W","W","W","W","W","W","W"],["W","W","W","W","W","W","W","W","W","W","W","W","W","W","W","W","W","W","W","W","W","W","W","W","W","W","W","W","W","W","W","W","W","W","W","W"],["W","W","W","W","W","W","W","W","W","W","W","W","W","W","W","W"],["W","W",null,"W","W","W",null,"W","W",null,"W","W",null,"W","W","W",null,"W","W","W",null,"W","W",null,"W","W",null,"W","W","W",null,"W","W",null,"W","W",null,"W","W","W",null,"W","W","W",null,"W","W"],["W","W",null,"W","W","W",null,"W","W",null,"W","W",null,"W","W","W",null,"W","W","W",null,"W","W",null,"W","W",null,"W","W","W",null,"W","W",null,"W","W",null,"W","W","W",null,"W","W","W",null,"W","W"]],"timingvisible":false,"tabcounter":48,"stave":10,"totalstaves":11,"instrument":"5bass","selectedtuning":"5bass","version":"13"}

Member for

2 months 2 weeks
Submitted by batman777 on Fri, 2021-11-05 20:00