Sound will begin in 5 seconds

Things Go Wrong

01234567891011121314151617181920212223
E
B
G
D
A
E
B
0 1 2 3 4 5 6 7 8 9 10 11 12 13 14 15 16 17 18 19 20 21 22 23
(/) Slide Up  (\) Slide Down  (h) Hammer On  (p) Pull Off  (b) Bend (r) Release (v) Vibrato

INTRO and VERSE: The games we played... AND And so now what am I to you?

G|--------------------------------------------------------
D|--------------------------------------------------------
A|--------------------5-----4--------------5--------4-----
E|--7--5--4-----2--5-----5-----0-----2--5-----7--5-----0--

CHORUS: When things go wrong...

G|--------------------------------------------------------------------
D|--------------------------------------------------------------------
A|-----------------5-----------------5-----5--------------5-----------
E|--9--7--5-----2--------9--7--5--2-----------0--2--0--------0--2--0--

TRANSITION TO REPRISE SECTIONS: Now Joe has actually been staying over for two weeks

G|--------------------------------------------------------
D|--------------------------------------------------------
A|--5--5--7--------7--7--5--5-----5--5--7-----------5-----
E|-----------5--5--------------------------------5-----5--

JUST WATER AND KEY CHANGE

G|--------------------------------------------------
D|--------------------------------------------------
A|--------4--------5--7--5--5--------5--5-----------
E|--5--0-----2--2--------------5--5--------0--0--2--

FINAL CHORUS: When things go wrong...

G|--------------------------------------------------------------------
D|--------------------------------------------------------------------
A|--9--6-----------9--6-----------------------------------------------
E|--------7--4--0--------7--4--0--2--0--2--4--2--0--2--4--2--------2--

http://www.guitartabcreator.com
Guitar Tab Creator is intended to store guitar tab created through the tool. It currently does not support in-line text editing. Any text you place in here will be lost. If you need to comment on your tab, please use the "Tab Notes" section located below.