Sound will begin in 5 seconds

Solo hotel california

01234567891011121314151617181920212223
E
B
G
D
A
E
B
0 1 2 3 4 5 6 7 8 9 10 11 12 13 14 15 16 17 18 19 20 21 22 23
Song Science #1: How Pros Use 6 Chords to Write Hit Songs
(/) Slide Up  (\) Slide Down  (h) Hammer On  (p) Pull Off  (b) Bend (r) Release (v) Vibrato

Stave 1:

E|--------------------------------------------------------------------------------------------------10-----
B|------10--12/14--10h12----------7--------------------------7-------------------7-----------10b12----r10--
G|--11--------------------9--7h9-----7------------------7h9-----7-----------7h9----------------------------
D|--------------------------------------8--9h11p9\7--8-------------9--8--9----------9--7--9----------------
A|---------------------------------------------------------------------------------------------------------
E|---------------------------------------------------------------------------------------------------------

Stave 2:

E|-----7-------7------10b12r10--10--7--10b12r10--7---------10--------------10-------------------------------
B|--7-----8b9-----10--------------------------------10b12----r10--8---------------------------7--8--8p7-----
G|-------------------------------------------------------------------9b11----r9--7--7p6--7/9-------------9--
D|----------------------------------------------------------------------------------------------------------
A|----------------------------------------------------------------------------------------------------------
E|----------------------------------------------------------------------------------------------------------

Stave 3:

E|-----------------------------------------------7-----------------------------------------7-----------7--
B|-----7b8--7b8--7b8r7-----------7--10--------7----------------------------7--10--------7-----------7-----
G|--9-------------------9--9b11---------9b11--------9b11r9--7--9b11--9b11---------9b11--------9b11--------
D|--------------------------------------------------------------------------------------------------------
A|--------------------------------------------------------------------------------------------------------
E|--------------------------------------------------------------------------------------------------------

Stave 4:

E|-----------7----------------------------------------------------------7----------------7-----------------
B|--------7------------------------------------------------------10b12-----10--7--10b12-----10/12--11--10--
G|--9b11--------9b11r9p7--9--7--9b11-----11b13r11--9h11--7-------------------------------------------------
D|----------------------------------------------------------9p7--------------------------------------------
A|---------------------------------------------------------------------------------------------------------
E|---------------------------------------------------------------------------------------------------------

Stave 5:

E|-----------------------12-------------17-------------------------15--16--17--18-----------------------
B|--9---------12--15b17------15--17b19------19r17--15--17--15--17------------------17b18r17--15--17b18--
G|-----12b14--------------------------------------------------------------------------------------------
D|------------------------------------------------------------------------------------------------------
A|------------------------------------------------------------------------------------------------------
E|------------------------------------------------------------------------------------------------------

Stave 6:

E|----------------17--17----------------
B|--------------------------------------
G|--17p15--17b19----------19r17--17b19--
D|--------------------------------------
A|--------------------------------------
E|--------------------------------------

http://www.guitartabcreator.com
Guitar Tab Creator is intended to store guitar tab created through the tool. It currently does not support in-line text editing. Any text you place in here will be lost. If you need to comment on your tab, please use the "Tab Notes" section located below.