Sound will begin in 5 seconds

New band - new song 3

01234567891011121314151617181920212223
E
B
G
D
A
E
B
0 1 2 3 4 5 6 7 8 9 10 11 12 13 14 15 16 17 18 19 20 21 22 23
(/) Slide Up  (\) Slide Down  (h) Hammer On  (p) Pull Off  (b) Bend (r) Release (v) Vibrato

Stave 1:

F|--------------------------------------------------
C|--------------------------------------------------
G|-----------0--6--5--0--5--3-----------------------
C|--0--6--5--------------------0--5--3--0--1--1--1--

Stave 2:

F|---------------------------------------------------
C|---------------------------------------------------
G|---------------------------------------------------
C|--0--9--10--0--7--8--0--5--6--0--3--4--0--1--1--1--

Stave 3:

F|-----------------------------------
C|--0--------------------------------
G|-----1-----------------------------
C|--------1--3--3--3--3--3--3--3--3--

Stave 4:

F|--------------------------------------------------------------------------------------
C|--------------------------------------------------------------------------------------
G|--5--5--5--5--5--5--5--5--5--5--5--5--5--5--5--5--5--5--5--5--5--5--5--5--5--5--5--5--
C|--------------------------------------------------------------------------------------

Stave 5:

F|--------------------------------------------------------------------------------------
C|--------------------------------------------------------------------------------------
G|--------------------------------------------------------------------------------------
C|--8--8--8--8--8--8--8--8--8--8--8--8--8--8--6--6--6--6--6--6--6--6--6--6--6--6--6--6--

Stave 6:

F|-----------------------------------------------------------------------------
C|-----------------------------------------------------------------------------
G|--------------------------------------1--1--1--1--1--1--1--1--1--1--1--1--3--
C|--0--0--0--0--0--0--0--0--0--0--0--0-----------------------------------------

Stave 7:

F|-----------
C|-----------
G|-----1--3--
C|--0--------

http://www.guitartabcreator.com
Guitar Tab Creator is intended to store guitar tab created through the tool. It currently does not support in-line text editing. Any text you place in here will be lost. If you need to comment on your tab, please use the "Tab Notes" section located below.