Sound will begin in 5 seconds

New band - new song 1

01234567891011121314151617181920212223
E
B
G
D
A
E
B
0 1 2 3 4 5 6 7 8 9 10 11 12 13 14 15 16 17 18 19 20 21 22 23
(/) Slide Up  (\) Slide Down  (h) Hammer On  (p) Pull Off  (b) Bend (r) Release (v) Vibrato

Stave 1:

F|--------------------------------------------------------------------------------------------
C|--------------------------------------------------------------------------------------------
G|-----------------------3--5--6-----------------------5--6--5-----------------------3--5--6--
C|--0--0--0--0--0--0--0-----------0--0--0--0--0--0--0-----------0--0--0--0--0--0--0-----------

Stave 2:

F|--------------------------------------------
C|--------------------------------------------
G|--------------------------------------------
C|--6--6--6--6--6--6--6--1--1--1--1--1--1--1--

Stave 3:

F|--------------------------------------------------------------------------------------------------------
C|--------------------------------------------------------------------------------------------------------
G|--------------5--------3--------------5--------7--8--------------5--------3--------------5--------7--8--
C|--0--0--0--0-----0--0-----0--0--0--0-----0--0--------0--0--0--0-----0--0-----0--0--0--0-----0--0--------

Stave 4:

F|-----------------------------------------------------
C|-----------------------------------------------------
G|--------------3--------5--------------3--------3--5--
C|--1--1--1--1-----1--1-----1--1--1--1-----1--1--------

Stave 5:

F|--------------------------------------------------------------------------------------------------------
C|--------------0-----------------------0--------2--3--------------0--------------------------------2--3--
G|-----------------------3--------------------------------------------------3--------------3--------------
C|--0--0--0--0-----0--0-----0--0--0--0-----0--0--------0--0--0--0-----0--0-----0--0--0--0-----0--0--------

Stave 6:

F|-----------------------------------------------------
C|-----------------------0--------------------------0--
G|--------------3-----------------------3--------3-----
C|--1--1--1--1-----1--1-----1--1--1--1-----1--1--------

Stave 7:

F|--------------------------------------------
C|--------------------------------------------
G|--------------------------------3--4--5--6--
C|--0--0--0--0--0--0--3--4--5--6--------------

Stave 8:

F|--------------------------------------------------
C|--------------------------------------------------
G|--------------------------------------3--4--5--6--
C|--1--1--1--1--1--1--1--1--3--4--5--6--------------

Stave 9:

F|--------------------------------------------------
C|--------------------------------------------------
G|--------------------------------------3--4--5--6--
C|--0--0--0--0--0--0--0--0--3--4--5--6--------------

Stave 10:

F|--------------------------------------------------------------------------------------------------
C|--------------------------------------------------------------------------------------------------
G|--3--5-----------------------6-----5-----3--------3--5-----------------------6-----5-----3--------
C|--------0--0--0--0--0--0--0-----0-----0-----0--0--------0--0--0--0--0--0--0-----0-----0-----0--0--

Stave 11:

F|--------------------------------------------------------------------------------------------------
C|--------------------------------------------------------------------------------------------------
G|-----------------------------3-----5-----6--------3--5--------------------5--------5--------5-----
C|--0--1--1--1--1--1--1--1--1-----0-----0-----0--0--------0--0--0--0--0--0-----0--0-----0--0-----0--

http://www.guitartabcreator.com
Guitar Tab Creator is intended to store guitar tab created through the tool. It currently does not support in-line text editing. Any text you place in here will be lost. If you need to comment on your tab, please use the "Tab Notes" section located below.