Sound will begin in 5 seconds

Requintazo

Chords
01234567891011121314151617181920212223
E
B
G
D
A
E
B
0 1 2 3 4 5 6 7 8 9 10 11 12 13 14 15 16 17 18 19 20 21 22 23
(/) Slide Up  (\) Slide Down  (h) Hammer On  (p) Pull Off  (b) Bend (r) Release (v) Vibrato

Stave 1:

E|--9---9---9---9---9---9---9---9--14--14--14--14--9---9-/10--10--10--10--12--12--12--10--9------9---9---
B|--10--10--10--10--10--10--10--10/15--15--15--15--10--10-12--12--12--12--14--14--14--12--10-----10--10--
G|-------------------------------------------------------------------------------------------------------
D|-------------------------------------------------------------------------------------------------------
A|-------------------------------------------------------------------------------------------------------
E|-------------------------------------------------------------------------------------------------------

Stave 2:

E|--10--9---7--7--7--7--9---10--9---7--5--5--5--5--4--2--0--0--2--2--0--------------------------------
B|--12--10--9--9--9--9--10--12--10--9--7--7--7--7--5--3--2--0--2--------3--2--0-----------------------
G|-------------------------------------------------------------2-----------------2--------------------
D|----------------------------------------------------------------------------------4--2--0-----------
A|-------------------------------------------------------------------------------------------4--2--0--
E|----------------------------------------------------------------------------------------------------

Stave 3:

E|-----------------------------------------------5--5-----------------------
B|-----------------------------------------------5--5-----------------------
G|-----2--------------------6--6-----6--6--6-----6--6--------------4--5--6--
D|--2--2--4--2--0-----------------7-----------7--7--7-----4--5--7-----------
A|--4--4-----------4--2--0-----------------------------7--------------------
E|--------------------------------------------------------------------------

http://www.guitartabcreator.com
Guitar Tab Creator is intended to store guitar tab created through the tool. It currently does not support in-line text editing. Any text you place in here will be lost. If you need to comment on your tab, please use the "Tab Notes" section located below.